  0
SECTION
  2
HEADER
  9
$ACADVER
  1
AC1015
  9
$ACADMAINTVER
 70
    20
  9
$DWGCODEPAGE
  3
ANSI_932
  9
$INSBASE
 10
0.0
 20
0.0
 30
0.0
  9
$EXTMIN
 10
94.75747316083175
 20
251.2844879270103
 30
-0.0000000349181948
  9
$EXTMAX
 10
731.4381301904774
 20
588.6322012829525
 30
0.0000000814935746
  9
$LIMMIN
 10
0.0
 20
0.0
  9
$LIMMAX
 10
841.0
 20
594.5
  9
$ORTHOMODE
 70
     0
  9
$REGENMODE
 70
     1
  9
$FILLMODE
 70
     1
  9
$QTEXTMODE
 70
     0
  9
$MIRRTEXT
 70
     0
  9
$LTSCALE
 40
0.5
  9
$ATTMODE
 70
     1
  9
$TEXTSIZE
 40
0.2
  9
$TRACEWID
 40
0.05
  9
$TEXTSTYLE
  7
STANDARD
  9
$CLAYER
  8
0
  9
$CELTYPE
  6
CONTINUOUS
  9
$CECOLOR
 62
   256
  9
$CELTSCALE
 40
1.0
  9
$DISPSILH
 70
     0
  9
$DIMSCALE
 40
1.0
  9
$DIMASZ
 40
0.18
  9
$DIMEXO
 40
0.0625
  9
$DIMDLI
 40
0.38
  9
$DIMRND
 40
0.0
  9
$DIMDLE
 40
0.0
  9
$DIMEXE
 40
0.18
  9
$DIMTP
 40
0.0
  9
$DIMTM
 40
0.0
  9
$DIMTXT
 40
0.18
  9
$DIMCEN
 40
0.09
  9
$DIMTSZ
 40
0.0
  9
$DIMTOL
 70
     0
  9
$DIMLIM
 70
     0
  9
$DIMTIH
 70
     1
  9
$DIMTOH
 70
     1
  9
$DIMSE1
 70
     0
  9
$DIMSE2
 70
     0
  9
$DIMTAD
 70
     0
  9
$DIMZIN
 70
     0
  9
$DIMBLK
  1

  9
$DIMASO
 70
     1
  9
$DIMSHO
 70
     1
  9
$DIMPOST
  1

  9
$DIMAPOST
  1

  9
$DIMALT
 70
     0
  9
$DIMALTD
 70
     2
  9
$DIMALTF
 40
25.4
  9
$DIMLFAC
 40
1.0
  9
$DIMTOFL
 70
     0
  9
$DIMTVP
 40
0.0
  9
$DIMTIX
 70
     0
  9
$DIMSOXD
 70
     0
  9
$DIMSAH
 70
     0
  9
$DIMBLK1
  1

  9
$DIMBLK2
  1

  9
$DIMSTYLE
  2
Standard
  9
$DIMCLRD
 70
     0
  9
$DIMCLRE
 70
     0
  9
$DIMCLRT
 70
     0
  9
$DIMTFAC
 40
1.0
  9
$DIMGAP
 40
0.09
  9
$DIMJUST
 70
     0
  9
$DIMSD1
 70
     0
  9
$DIMSD2
 70
     0
  9
$DIMTOLJ
 70
     1
  9
$DIMTZIN
 70
     0
  9
$DIMALTZ
 70
     0
  9
$DIMALTTZ
 70
     0
  9
$DIMUPT
 70
     0
  9
$DIMDEC
 70
     4
  9
$DIMTDEC
 70
     4
  9
$DIMALTU
 70
     2
  9
$DIMALTTD
 70
     2
  9
$DIMTXSTY
  7
STANDARD
  9
$DIMAUNIT
 70
     0
  9
$DIMADEC
 70
     0
  9
$DIMALTRND
 40
0.0
  9
$DIMAZIN
 70
     0
  9
$DIMDSEP
 70
    46
  9
$DIMATFIT
 70
     3
  9
$DIMFRAC
 70
     0
  9
$DIMLDRBLK
  1

  9
$DIMLUNIT
 70
     2
  9
$DIMLWD
 70
    -2
  9
$DIMLWE
 70
    -2
  9
$DIMTMOVE
 70
     0
  9
$LUNITS
 70
     2
  9
$LUPREC
 70
     4
  9
$SKETCHINC
 40
0.1
  9
$FILLETRAD
 40
0.5
  9
$AUNITS
 70
     0
  9
$AUPREC
 70
     0
  9
$MENU
  1
.
  9
$ELEVATION
 40
0.0
  9
$PELEVATION
 40
0.0
  9
$THICKNESS
 40
0.0
  9
$LIMCHECK
 70
     0
  9
$CHAMFERA
 40
0.0
  9
$CHAMFERB
 40
0.0
  9
$CHAMFERC
 40
0.0
  9
$CHAMFERD
 40
0.0
  9
$SKPOLY
 70
     0
  9
$TDCREATE
 40
2457962.730515243
  9
$TDUCREATE
 40
2457962.355515243
  9
$TDUPDATE
 40
2458040.926408044
  9
$TDUUPDATE
 40
2458040.551408044
  9
$TDINDWG
 40
0.0126152894
  9
$TDUSRTIMER
 40
0.0126152894
  9
$USRTIMER
 70
     1
  9
$ANGBASE
 50
0.0
  9
$ANGDIR
 70
     0
  9
$PDMODE
 70
     0
  9
$PDSIZE
 40
0.0
  9
$PLINEWID
 40
0.0
  9
$SPLFRAME
 70
     0
  9
$SPLINETYPE
 70
     6
  9
$SPLINESEGS
 70
     8
  9
$HANDSEED
  5
B9C
  9
$SURFTAB1
 70
     6
  9
$SURFTAB2
 70
     6
  9
$SURFTYPE
 70
     6
  9
$SURFU
 70
     6
  9
$SURFV
 70
     6
  9
$UCSBASE
  2

  9
$UCSNAME
  2

  9
$UCSORG
 10
0.0
 20
0.0
 30
0.0
  9
$UCSXDIR
 10
1.0
 20
0.0
 30
0.0
  9
$UCSYDIR
 10
0.0
 20
1.0
 30
0.0
  9
$UCSORTHOREF
  2

  9
$UCSORTHOVIEW
 70
     0
  9
$UCSORGTOP
 10
0.0
 20
0.0
 30
0.0
  9
$UCSORGBOTTOM
 10
0.0
 20
0.0
 30
0.0
  9
$UCSORGLEFT
 10
0.0
 20
0.0
 30
0.0
  9
$UCSORGRIGHT
 10
0.0
 20
0.0
 30
0.0
  9
$UCSORGFRONT
 10
0.0
 20
0.0
 30
0.0
  9
$UCSORGBACK
 10
0.0
 20
0.0
 30
0.0
  9
$PUCSBASE
  2

  9
$PUCSNAME
  2

  9
$PUCSORG
 10
0.0
 20
0.0
 30
0.0
  9
$PUCSXDIR
 10
1.0
 20
0.0
 30
0.0
  9
$PUCSYDIR
 10
0.0
 20
1.0
 30
0.0
  9
$PUCSORTHOREF
  2

  9
$PUCSORTHOVIEW
 70
     0
  9
$PUCSORGTOP
 10
0.0
 20
0.0
 30
0.0
  9
$PUCSORGBOTTOM
 10
0.0
 20
0.0
 30
0.0
  9
$PUCSORGLEFT
 10
0.0
 20
0.0
 30
0.0
  9
$PUCSORGRIGHT
 10
0.0
 20
0.0
 30
0.0
  9
$PUCSORGFRONT
 10
0.0
 20
0.0
 30
0.0
  9
$PUCSORGBACK
 10
0.0
 20
0.0
 30
0.0
  9
$USERI1
 70
     0
  9
$USERI2
 70
     0
  9
$USERI3
 70
     0
  9
$USERI4
 70
     0
  9
$USERI5
 70
     0
  9
$USERR1
 40
0.0
  9
$USERR2
 40
0.0
  9
$USERR3
 40
0.0
  9
$USERR4
 40
0.0
  9
$USERR5
 40
0.0
  9
$WORLDVIEW
 70
     1
  9
$SHADEDGE
 70
     3
  9
$SHADEDIF
 70
    70
  9
$TILEMODE
 70
     1
  9
$MAXACTVP
 70
    64
  9
$PINSBASE
 10
0.0
 20
0.0
 30
0.0
  9
$PLIMCHECK
 70
     0
  9
$PEXTMIN
 10
1.000000000000000E+20
 20
1.000000000000000E+20
 30
1.000000000000000E+20
  9
$PEXTMAX
 10
-1.000000000000000E+20
 20
-1.000000000000000E+20
 30
-1.000000000000000E+20
  9
$PLIMMIN
 10
0.0
 20
0.0
  9
$PLIMMAX
 10
12.0
 20
9.0
  9
$UNITMODE
 70
     0
  9
$VISRETAIN
 70
     1
  9
$PLINEGEN
 70
     0
  9
$PSLTSCALE
 70
     1
  9
$TREEDEPTH
 70
  3020
  9
$CMLSTYLE
  2
Standard
  9
$CMLJUST
 70
     0
  9
$CMLSCALE
 40
1.0
  9
$PROXYGRAPHICS
 70
     1
  9
$MEASUREMENT
 70
     0
  9
$CELWEIGHT
370
    -1
  9
$ENDCAPS
280
     0
  9
$JOINSTYLE
280
     0
  9
$LWDISPLAY
290
     0
  9
$INSUNITS
 70
     0
  9
$HYPERLINKBASE
  1

  9
$STYLESHEET
  1
monochrome.ctb
  9
$XEDIT
290
     1
  9
$CEPSNTYPE
380
     0
  9
$PSTYLEMODE
290
     1
  9
$FINGERPRINTGUID
  2
{8B9655E1-85AD-4F34-AF0F-46503A963D2F}
  9
$VERSIONGUID
  2
{C2AF4B20-AA57-4F3A-87A1-9C4D0FB5D1EF}
  9
$EXTNAMES
290
     1
  9
$PSVPSCALE
 40
0.0
  9
$OLESTARTUP
290
     0
  0
ENDSEC
  0
SECTION
  2
CLASSES
  0
CLASS
  1
ACDBDICTIONARYWDFLT
  2
AcDbDictionaryWithDefault
  3
ObjectDBX Classes
 90
        0
280
     0
281
     0
  0
CLASS
  1
MATERIAL
  2
AcDbMaterial
  3
ObjectDBX Classes
 90
     1153
280
     0
281
     0
  0
CLASS
  1
VISUALSTYLE
  2
AcDbVisualStyle
  3
ObjectDBX Classes
 90
     4095
280
     0
281
     0
  0
CLASS
  1
SCALE
  2
AcDbScale
  3
ObjectDBX Classes
 90
     1153
280
     0
281
     0
  0
CLASS
  1
TABLESTYLE
  2
AcDbTableStyle
  3
ObjectDBX Classes
 90
     4095
280
     0
281
     0
  0
CLASS
  1
MLEADERSTYLE
  2
AcDbMLeaderStyle
  3
ACDB_MLEADERSTYLE_CLASS
 90
     4095
280
     0
281
     0
  0
CLASS
  1
ACDBSECTIONVIEWSTYLE
  2
AcDbSectionViewStyle
  3
ObjectDBX Classes
 90
     1025
280
     0
281
     0
  0
CLASS
  1
ACDBDETAILVIEWSTYLE
  2
AcDbDetailViewStyle
  3
ObjectDBX Classes
 90
     1025
280
     0
281
     0
  0
CLASS
  1
DICTIONARYVAR
  2
AcDbDictionaryVar
  3
ObjectDBX Classes
 90
        0
280
     0
281
     0
  0
CLASS
  1
SORTENTSTABLE
  2
AcDbSortentsTable
  3
ObjectDBX Classes
 90
        0
280
     0
281
     0
  0
CLASS
  1
CELLSTYLEMAP
  2
AcDbCellStyleMap
  3
ObjectDBX Classes
 90
     1152
280
     0
281
     0
  0
CLASS
  1
ACDBPLACEHOLDER
  2
AcDbPlaceHolder
  3
ObjectDBX Classes
 90
        0
280
     0
281
     0
  0
CLASS
  1
LAYOUT
  2
AcDbLayout
  3
ObjectDBX Classes
 90
        0
280
     0
281
     0
  0
ENDSEC
  0
SECTION
  2
TABLES
  0
TABLE
  2
VPORT
  5
8
330
0
100
AcDbSymbolTable
 70
     1
  0
VPORT
  5
A0
330
8
100
AcDbSymbolTableRecord
100
AcDbViewportTableRecord
  2
*Active
 70
     0
 10
0.0
 20
0.0
 11
1.0
 21
1.0
 12
413.0978016756546
 22
419.9583446049814
 13
0.0
 23
0.0
 14
1.0
 24
1.0
 15
0.0
 25
0.0
 16
0.0
 26
0.0
 36
1.0
 17
0.0
 27
0.0
 37
0.0
 40
390.0318986862349
 41
1.640156453715775
 42
50.0
 43
0.0
 44
0.0
 50
0.0
 51
0.0
 71
     0
 72
   100
 73
     1
 74
     1
 75
     0
 76
     0
 77
     0
 78
     0
281
     0
 65
     1
110
0.0
120
0.0
130
0.0
111
1.0
121
0.0
131
0.0
112
0.0
122
1.0
132
0.0
 79
     0
146
0.0
1001
ACAD_NAV_VCDISPLAY
1070
     3
  0
ENDTAB
  0
TABLE
  2
LTYPE
  5
5
330
0
100
AcDbSymbolTable
 70
    38
  0
LTYPE
  5
5A
330
5
100
AcDbSymbolTableRecord
100
AcDbLinetypeTableRecord
  2
ByBlock
 70
     0
  3

 72
    65
 73
     0
 40
0.0
  0
LTYPE
  5
5B
330
5
100
AcDbSymbolTableRecord
100
AcDbLinetypeTableRecord
  2
ByLayer
 70
     0
  3

 72
    65
 73
     0
 40
0.0
  0
LTYPE
  5
5C
330
5
100
AcDbSymbolTableRecord
100
AcDbLinetypeTableRecord
  2
CONTINUOUS
 70
     0
  3
実線
 72
    65
 73
     0
 40
0.0
  0
LTYPE
  5
73
330
5
100
AcDbSymbolTableRecord
100
AcDbLinetypeTableRecord
  2
DASHED1
 70
     0
  3
--  --  --  --  --  --  --  --  
 72
    65
 73
     2
 40
2.5
 49
1.25
 74
     0
 49
-1.25
 74
     0
  0
LTYPE
  5
74
330
5
100
AcDbSymbolTableRecord
100
AcDbLinetypeTableRecord
  2
DASHED2
 70
     0
  3
----    ----    ----    ----    
 72
    65
 73
     2
 40
5.0
 49
2.5
 74
     0
 49
-2.5
 74
     0
  0
LTYPE
  5
75
330
5
100
AcDbSymbolTableRecord
100
AcDbLinetypeTableRecord
  2
DASHED3
 70
     0
  3
------  ------  ------  ------  
 72
    65
 73
     2
 40
5.0
 49
3.75
 74
     0
 49
-1.25
 74
     0
  0
LTYPE
  5
76
330
5
100
AcDbSymbolTableRecord
100
AcDbLinetypeTableRecord
  2
CENTER1
 70
     0
  3
----- - ----- - ----- - ----- - 
 72
    65
 73
     4
 40
10.0
 49
6.25
 74
     0
 49
-1.25
 74
     0
 49
1.25
 74
     0
 49
-1.25
 74
     0
  0
LTYPE
  5
77
330
5
100
AcDbSymbolTableRecord
100
AcDbLinetypeTableRecord
  2
CENTER2
 70
     0
  3
----------  --  ----------  --  
 72
    65
 73
     4
 40
20.0
 49
12.5
 74
     0
 49
-2.5
 74
     0
 49
2.5
 74
     0
 49
-2.5
 74
     0
  0
LTYPE
  5
78
330
5
100
AcDbSymbolTableRecord
100
AcDbLinetypeTableRecord
  2
PHANTOM1
 70
     0
  3
--- - - --- - - --- - - --- - - 
 72
    65
 73
     6
 40
10.0
 49
3.25
 74
     0
 49
-1.25
 74
     0
 49
1.25
 74
     0
 49
-1.25
 74
     0
 49
1.25
 74
     0
 49
-1.25
 74
     0
  0
LTYPE
  5
79
330
5
100
AcDbSymbolTableRecord
100
AcDbLinetypeTableRecord
  2
PHANTOM2
 70
     0
  3
--------  -  -  --------  -  -  
 72
    65
 73
     6
 40
20.0
 49
10.0
 74
     0
 49
-2.5
 74
     0
 49
1.25
 74
     0
 49
-2.5
 74
     0
 49
1.25
 74
     0
 49
-2.5
 74
     0
  0
LTYPE
  5
7A
330
5
100
AcDbSymbolTableRecord
100
AcDbLinetypeTableRecord
  2
DOT
 70
     0
  3
-   -   -   -   -   -   -   -   
 72
    65
 73
     2
 40
2.5
 49
0.625
 74
     0
 49
-1.875
 74
     0
  0
LTYPE
  5
7B
330
5
100
AcDbSymbolTableRecord
100
AcDbLinetypeTableRecord
  2
DUMMY
 70
     0
  3
ダミー
 72
    65
 73
     0
 40
0.0
  0
LTYPE
  5
7C
330
5
100
AcDbSymbolTableRecord
100
AcDbLinetypeTableRecord
  2
RAND1
 70
     0
  3
ランダム線1
 72
    65
 73
     4
 40
10.0
 49
1.0
 74
     0
 49
-2.0
 74
     0
 49
3.0
 74
     0
 49
-4.0
 74
     0
  0
LTYPE
  5
7D
330
5
100
AcDbSymbolTableRecord
100
AcDbLinetypeTableRecord
  2
RAND2
 70
     0
  3
ランダム線2
 72
    65
 73
     4
 40
14.0
 49
2.0
 74
     0
 49
-3.0
 74
     0
 49
4.0
 74
     0
 49
-5.0
 74
     0
  0
LTYPE
  5
7E
330
5
100
AcDbSymbolTableRecord
100
AcDbLinetypeTableRecord
  2
RAND3
 70
     0
  3
ランダム線3
 72
    65
 73
     4
 40
18.0
 49
3.0
 74
     0
 49
-4.0
 74
     0
 49
5.0
 74
     0
 49
-6.0
 74
     0
  0
LTYPE
  5
7F
330
5
100
AcDbSymbolTableRecord
100
AcDbLinetypeTableRecord
  2
RAND4
 70
     0
  3
ランダム線4
 72
    65
 73
     4
 40
22.0
 49
4.0
 74
     0
 49
-5.0
 74
     0
 49
6.0
 74
     0
 49
-7.0
 74
     0
  0
LTYPE
  5
80
330
5
100
AcDbSymbolTableRecord
100
AcDbLinetypeTableRecord
  2
RAND5
 70
     0
  3
ランダム線5
 72
    65
 73
     4
 40
26.0
 49
5.0
 74
     0
 49
-6.0
 74
     0
 49
7.0
 74
     0
 49
-8.0
 74
     0
  0
LTYPE
  5
81
330
5
100
AcDbSymbolTableRecord
100
AcDbLinetypeTableRecord
  2
LONG1
 70
     0
  3
----------  --  ----------  --  
 72
    65
 73
     4
 40
40.0
 49
32.5
 74
     0
 49
-2.5
 74
     0
 49
2.5
 74
     0
 49
-2.5
 74
     0
  0
LTYPE
  5
82
330
5
100
AcDbSymbolTableRecord
100
AcDbLinetypeTableRecord
  2
LONG2
 70
     0
  3
--------  -  -  --------  -  -  
 72
    65
 73
     6
 40
40.0
 49
30.0
 74
     0
 49
-2.5
 74
     0
 49
1.25
 74
     0
 49
-2.5
 74
     0
 49
1.25
 74
     0
 49
-2.5
 74
     0
  0
LTYPE
  5
83
330
5
100
AcDbSymbolTableRecord
100
AcDbLinetypeTableRecord
  2
LONG3
 70
     0
  3
+++++++++++++++..+++++++++++++++
 72
    65
 73
     2
 40
40.0
 49
37.5
 74
     0
 49
-2.5
 74
     0
  0
LTYPE
  5
84
330
5
100
AcDbSymbolTableRecord
100
AcDbLinetypeTableRecord
  2
LONG4
 70
     0
  3
+++++++++++++++..+++++++++++++++
 72
    65
 73
     2
 40
80.0
 49
75.0
 74
     0
 49
-5.0
 74
     0
  0
LTYPE
  5
85
330
5
100
AcDbSymbolTableRecord
100
AcDbLinetypeTableRecord
  2
LONG5
 70
     0
  3
----------  --  ----------  --  
 72
    65
 73
     4
 40
60.0
 49
37.5
 74
     0
 49
-7.5
 74
     0
 49
7.5
 74
     0
 49
-7.5
 74
     0
  0
LTYPE
  5
86
330
5
100
AcDbSymbolTableRecord
100
AcDbLinetypeTableRecord
  2
DASHED
 70
     0
  3
------     -----------     -----
 72
    65
 73
     2
 40
19.05
 49
12.7
 74
     0
 49
-6.349999999999997
 74
     0
  0
LTYPE
  5
87
330
5
100
AcDbSymbolTableRecord
100
AcDbLinetypeTableRecord
  2
DASHED_SPACED
 70
     0
  3
----        --------        ----
 72
    65
 73
     2
 40
12.0
 49
6.0
 74
     0
 49
-6.0
 74
     0
  0
LTYPE
  5
88
330
5
100
AcDbSymbolTableRecord
100
AcDbLinetypeTableRecord
  2
LONG_DASHED_DOTTED
 70
     0
  3
------------- --- --------------
 72
    65
 73
     4
 40
15.25
 49
12.0
 74
     0
 49
-1.5
 74
     0
 49
0.25
 74
     0
 49
-1.5
 74
     0
  0
LTYPE
  5
89
330
5
100
AcDbSymbolTableRecord
100
AcDbLinetypeTableRecord
  2
LONG_DASHED_DOUBLE-DOTTED
 70
     0
  3
----------- --- --- ------------
 72
    65
 73
     6
 40
17.0
 49
12.0
 74
     0
 49
-1.5
 74
     0
 49
0.25
 74
     0
 49
-1.5
 74
     0
 49
0.25
 74
     0
 49
-1.5
 74
     0
  0
LTYPE
  5
8A
330
5
100
AcDbSymbolTableRecord
100
AcDbLinetypeTableRecord
  2
LONG_DASHED_TRIPLICATE-DOTTED
 70
     0
  3
--------- --- --- --- ----------
 72
    65
 73
     8
 40
18.75
 49
12.0
 74
     0
 49
-1.5
 74
     0
 49
0.25
 74
     0
 49
-1.5
 74
     0
 49
0.25
 74
     0
 49
-1.5
 74
     0
 49
0.25
 74
     0
 49
-1.5
 74
     0
  0
LTYPE
  5
8B
330
5
100
AcDbSymbolTableRecord
100
AcDbLinetypeTableRecord
  2
DOTTED
 70
     0
  3
   -       -       -       -    
 72
    65
 73
     2
 40
1.75
 49
0.25
 74
     0
 49
-1.5
 74
     0
  0
LTYPE
  5
8C
330
5
100
AcDbSymbolTableRecord
100
AcDbLinetypeTableRecord
  2
CHAIN
 70
     0
  3
-------------- -- --------------
 72
    65
 73
     4
 40
18.5
 49
12.0
 74
     0
 49
-1.5
 74
     0
 49
3.5
 74
     0
 49
-1.5
 74
     0
  0
LTYPE
  5
8D
330
5
100
AcDbSymbolTableRecord
100
AcDbLinetypeTableRecord
  2
CHAIN_DOUBLE_DASH
 70
     0
  3
------------ -- -- -------------
 72
    65
 73
     6
 40
23.5
 49
12.0
 74
     0
 49
-1.5
 74
     0
 49
3.5
 74
     0
 49
-1.5
 74
     0
 49
3.5
 74
     0
 49
-1.5
 74
     0
  0
LTYPE
  5
8E
330
5
100
AcDbSymbolTableRecord
100
AcDbLinetypeTableRecord
  2
DASHED_DOTTED
 70
     0
  3
-----------     -     ----------
 72
    65
 73
     4
 40
9.25
 49
6.0
 74
     0
 49
-1.5
 74
     0
 49
0.25
 74
     0
 49
-1.5
 74
     0
  0
LTYPE
  5
8F
330
5
100
AcDbSymbolTableRecord
100
AcDbLinetypeTableRecord
  2
DOUBLE-DASHED_DOTTED
 70
     0
  3
------   -----------   -   -----
 72
    65
 73
     6
 40
16.75
 49
6.0
 74
     0
 49
-1.5
 74
     0
 49
6.0
 74
     0
 49
-1.5
 74
     0
 49
0.25
 74
     0
 49
-1.5
 74
     0
  0
LTYPE
  5
90
330
5
100
AcDbSymbolTableRecord
100
AcDbLinetypeTableRecord
  2
DASHED_DOUBLE-DOTTED
 70
     0
  3
---------    -    -    ---------
 72
    65
 73
     6
 40
11.0
 49
6.0
 74
     0
 49
-1.5
 74
     0
 49
0.25
 74
     0
 49
-1.5
 74
     0
 49
0.25
 74
     0
 49
-1.5
 74
     0
  0
LTYPE
  5
91
330
5
100
AcDbSymbolTableRecord
100
AcDbLinetypeTableRecord
  2
DOUBLE-DASHED_DOUBLE-DOTTED
 70
     0
  3
-----   ---------   -   -   ----
 72
    65
 73
     8
 40
18.5
 49
6.0
 74
     0
 49
-1.5
 74
     0
 49
6.0
 74
     0
 49
-1.5
 74
     0
 49
0.25
 74
     0
 49
-1.5
 74
     0
 49
0.25
 74
     0
 49
-1.5
 74
     0
  0
LTYPE
  5
92
330
5
100
AcDbSymbolTableRecord
100
AcDbLinetypeTableRecord
  2
DASHED_TRIPLICATE-DOTTED
 70
     0
  3
-------    -    -    -    ------
 72
    65
 73
     8
 40
12.75
 49
6.0
 74
     0
 49
-1.5
 74
     0
 49
0.25
 74
     0
 49
-1.5
 74
     0
 49
0.25
 74
     0
 49
-1.5
 74
     0
 49
0.25
 74
     0
 49
-1.5
 74
     0
  0
LTYPE
  5
93
330
5
100
AcDbSymbolTableRecord
100
AcDbLinetypeTableRecord
  2
DOUBLE-DASHED_TRIPLICATE-DOTTED
 70
     0
  3
-----  ---------  -  -  -  -----
 72
    65
 73
    10
 40
20.25
 49
6.0
 74
     0
 49
-1.5
 74
     0
 49
6.0
 74
     0
 49
-1.5
 74
     0
 49
0.25
 74
     0
 49
-1.5
 74
     0
 49
0.25
 74
     0
 49
-1.5
 74
     0
 49
0.25
 74
     0
 49
-1.5
 74
     0
  0
LTYPE
  5
94
330
5
100
AcDbSymbolTableRecord
100
AcDbLinetypeTableRecord
  2
UNDEFINED
 70
     0
  3
--------------------------------
 72
    65
 73
     0
 40
0.0
  0
LTYPE
  5
95
330
5
100
AcDbSymbolTableRecord
100
AcDbLinetypeTableRecord
  2
HIDDEN
 70
     0
  3
------     -----------     -----
 72
    65
 73
     2
 40
12.6
 49
8.4
 74
     0
 49
-4.2
 74
     0
  0
LTYPE
  5
96
330
5
100
AcDbSymbolTableRecord
100
AcDbLinetypeTableRecord
  2
DASHDOT
 70
     0
  3
---------      --      ---------
 72
    65
 73
     4
 40
50.5
 49
30.0
 74
     0
 49
-9.0
 74
     0
 49
2.5
 74
     0
 49
-9.0
 74
     0
  0
LTYPE
  5
97
330
5
100
AcDbSymbolTableRecord
100
AcDbLinetypeTableRecord
  2
CENTER
 70
     0
  3
----------    ----    ----------
 72
    65
 73
     4
 40
50.79999999999998
 49
31.75
 74
     0
 49
-6.349999999999997
 74
     0
 49
6.349999999999997
 74
     0
 49
-6.349999999999997
 74
     0
  0
ENDTAB
  0
TABLE
  2
LAYER
  5
2
102
{ACAD_XDICTIONARY
360
B35
102
}
330
0
100
AcDbSymbolTable
 70
     7
  0
LAYER
  5
54
102
{ACAD_XDICTIONARY
360
B0E
102
}
330
2
100
AcDbSymbolTableRecord
100
AcDbLayerTableRecord
  2
0
 70
     0
 62
     7
  6
CONTINUOUS
370
    -3
390
F
  0
LAYER
  5
99
102
{ACAD_XDICTIONARY
360
B10
102
}
330
2
100
AcDbSymbolTableRecord
100
AcDbLayerTableRecord
  2
_0-0_0
 70
     0
 62
     7
  6
CONTINUOUS
370
    -3
390
F
  0
LAYER
  5
9A
102
{ACAD_XDICTIONARY
360
B12
102
}
330
2
100
AcDbSymbolTableRecord
100
AcDbLayerTableRecord
  2
_0-1_Ｓ
 70
     0
 62
     7
  6
CONTINUOUS
370
    -3
390
F
  0
LAYER
  5
9B
102
{ACAD_XDICTIONARY
360
B14
102
}
330
2
100
AcDbSymbolTableRecord
100
AcDbLayerTableRecord
  2
_0-F_0-0
 70
     0
 62
     7
  6
CONTINUOUS
370
    -3
390
F
  0
LAYER
  5
9C
102
{ACAD_XDICTIONARY
360
B16
102
}
330
2
100
AcDbSymbolTableRecord
100
AcDbLayerTableRecord
  2
_1-0_S
 70
     0
 62
     7
  6
CONTINUOUS
370
    -3
390
F
  0
LAYER
  5
9D
102
{ACAD_XDICTIONARY
360
B18
102
}
330
2
100
AcDbSymbolTableRecord
100
AcDbLayerTableRecord
  2
ADD_LINE
 70
     0
 62
     7
  6
CONTINUOUS
370
    -3
390
F
  0
LAYER
  5
13B
102
{ACAD_XDICTIONARY
360
B1A
102
}
330
2
100
AcDbSymbolTableRecord
100
AcDbLayerTableRecord
  2
_0-4_DEFPOINTS
 70
     0
 62
     7
  6
CONTINUOUS
370
    -3
390
F
  0
ENDTAB
  0
TABLE
  2
STYLE
  5
3
330
0
100
AcDbSymbolTable
 70
     4
  0
STYLE
  5
55
330
3
100
AcDbSymbolTableRecord
100
AcDbTextStyleTableRecord
  2
STANDARD
 70
     0
 40
0.0
 41
1.0
 50
0.0
 71
     0
 42
0.2
  3
txt
  4
bigfont.shx
  0
STYLE
  5
59
330
3
100
AcDbSymbolTableRecord
100
AcDbTextStyleTableRecord
  2
Annotative
 70
     0
 40
0.0
 41
1.0
 50
0.0
 71
     0
 42
0.2
  3
txt
  4

1001
AcadAnnotative
1000
AnnotativeData
1002
{
1070
     1
1070
     1
1002
}
  0
STYLE
  5
98
330
3
100
AcDbSymbolTableRecord
100
AcDbTextStyleTableRecord
  2
TATEGAKI
 70
     4
 40
0.0
 41
1.0
 50
0.0
 71
     0
 42
1.0
  3
txt
  4
bigfont.shx
  0
ENDTAB
  0
TABLE
  2
VIEW
  5
6
330
0
100
AcDbSymbolTable
 70
     2
  0
ENDTAB
  0
TABLE
  2
UCS
  5
7
330
0
100
AcDbSymbolTable
 70
     0
  0
ENDTAB
  0
TABLE
  2
APPID
  5
9
330
0
100
AcDbSymbolTable
 70
     9
  0
APPID
  5
56
330
9
100
AcDbSymbolTableRecord
100
AcDbRegAppTableRecord
  2
ACAD
 70
     0
  0
APPID
  5
5D
330
9
100
AcDbSymbolTableRecord
100
AcDbRegAppTableRecord
  2
AcadAnnotative
 70
     0
  0
APPID
  5
AAD
330
9
100
AcDbSymbolTableRecord
100
AcDbRegAppTableRecord
  2
ACAD_NAV_VCDISPLAY
 70
     0
  0
APPID
  5
AB5
330
9
100
AcDbSymbolTableRecord
100
AcDbRegAppTableRecord
  2
GradientColor1ACI
 70
     0
  0
APPID
  5
AB6
330
9
100
AcDbSymbolTableRecord
100
AcDbRegAppTableRecord
  2
GradientColor2ACI
 70
     0
  0
APPID
  5
ADD
330
9
100
AcDbSymbolTableRecord
100
AcDbRegAppTableRecord
  2
ACAD_DSTYLE_DIMRADIAL_EXTENSION
 70
     0
  0
APPID
  5
ADF
330
9
100
AcDbSymbolTableRecord
100
AcDbRegAppTableRecord
  2
ACAD_EXEMPT_FROM_CAD_STANDARDS
 70
     0
  0
APPID
  5
B3E
330
9
100
AcDbSymbolTableRecord
100
AcDbRegAppTableRecord
  2
ACAD_PSEXT
 70
     0
  0
APPID
  5
B95
330
9
100
AcDbSymbolTableRecord
100
AcDbRegAppTableRecord
  2
ACAD_MLEADERVER
 70
     0
  0
ENDTAB
  0
TABLE
  2
DIMSTYLE
  5
A
330
0
100
AcDbSymbolTable
 70
     3
100
AcDbDimStyleTable
 71
     1
340
57
  0
DIMSTYLE
105
57
330
A
100
AcDbSymbolTableRecord
100
AcDbDimStyleTableRecord
  2
Standard
 70
     0
340
55
  0
DIMSTYLE
105
58
330
A
100
AcDbSymbolTableRecord
100
AcDbDimStyleTableRecord
  2
Annotative
 70
     0
340
55
1001
AcadAnnotative
1000
AnnotativeData
1002
{
1070
     1
1070
     1
1002
}
  0
ENDTAB
  0
TABLE
  2
BLOCK_RECORD
  5
1
330
0
100
AcDbSymbolTable
 70
   105
  0
BLOCK_RECORD
  5
6F
102
{ACAD_XDICTIONARY
360
AB3
102
}
330
1
100
AcDbSymbolTableRecord
100
AcDbBlockTableRecord
  2
*Model_Space
340
72
  0
BLOCK_RECORD
  5
6B
330
1
100
AcDbSymbolTableRecord
100
AcDbBlockTableRecord
  2
*Paper_Space
340
6E
  0
BLOCK_RECORD
  5
A1
330
1
100
AcDbSymbolTableRecord
100
AcDbBlockTableRecord
  2
-000-F-1
340
0
102
{BLKREFS
331
37C
102
}
  0
BLOCK_RECORD
  5
B0
330
1
100
AcDbSymbolTableRecord
100
AcDbBlockTableRecord
  2
-001-_DOTBLANK
340
0
102
{BLKREFS
331
258
331
269
331
26A
331
279
331
27A
331
289
331
28A
331
299
331
29A
331
2A9
331
2AA
331
2B9
331
2BA
331
2C3
331
2C4
331
2D5
331
2D6
331
2E5
331
2E6
331
2F5
331
2F6
331
305
331
306
331
315
331
316
331
325
331
326
331
335
331
336
331
345
331
346
331
355
331
356
331
365
331
366
331
375
331
376
331
138
331
139
331
149
331
14A
331
159
331
15A
331
169
331
16A
331
179
331
17A
331
189
331
18A
331
199
331
19A
331
1A9
331
1AA
331
1BA
331
1BB
331
1CB
331
1CC
331
1DC
331
1DD
331
1ED
331
1EE
331
1FD
331
1FE
331
20D
331
20E
331
21D
331
21E
331
22D
331
22E
331
23D
331
23E
331
24D
331
24E
331
257
102
}
  0
BLOCK_RECORD
  5
B5
330
1
100
AcDbSymbolTableRecord
100
AcDbBlockTableRecord
  2
-002-_U73
340
0
  0
BLOCK_RECORD
  5
B9
330
1
100
AcDbSymbolTableRecord
100
AcDbBlockTableRecord
  2
-003-_U74
340
0
  0
BLOCK_RECORD
  5
BD
330
1
100
AcDbSymbolTableRecord
100
AcDbBlockTableRecord
  2
-004-_U75
340
0
  0
BLOCK_RECORD
  5
C1
330
1
100
AcDbSymbolTableRecord
100
AcDbBlockTableRecord
  2
-005-_U76
340
0
  0
BLOCK_RECORD
  5
C5
330
1
100
AcDbSymbolTableRecord
100
AcDbBlockTableRecord
  2
-006-_U77
340
0
  0
BLOCK_RECORD
  5
C9
330
1
100
AcDbSymbolTableRecord
100
AcDbBlockTableRecord
  2
-007-_U78
340
0
  0
BLOCK_RECORD
  5
CD
330
1
100
AcDbSymbolTableRecord
100
AcDbBlockTableRecord
  2
-008-_U79
340
0
  0
BLOCK_RECORD
  5
D1
330
1
100
AcDbSymbolTableRecord
100
AcDbBlockTableRecord
  2
-009-_U80
340
0
  0
BLOCK_RECORD
  5
D5
330
1
100
AcDbSymbolTableRecord
100
AcDbBlockTableRecord
  2
-010-_U81
340
0
  0
BLOCK_RECORD
  5
D9
330
1
100
AcDbSymbolTableRecord
100
AcDbBlockTableRecord
  2
-011-_U82
340
0
  0
BLOCK_RECORD
  5
DD
330
1
100
AcDbSymbolTableRecord
100
AcDbBlockTableRecord
  2
-012-_U83
340
0
  0
BLOCK_RECORD
  5
E1
330
1
100
AcDbSymbolTableRecord
100
AcDbBlockTableRecord
  2
-013-_U84
340
0
102
{BLKREFS
331
60C
102
}
  0
BLOCK_RECORD
  5
E5
330
1
100
AcDbSymbolTableRecord
100
AcDbBlockTableRecord
  2
-014-_U85
340
0
102
{BLKREFS
331
60D
102
}
  0
BLOCK_RECORD
  5
EA
330
1
100
AcDbSymbolTableRecord
100
AcDbBlockTableRecord
  2
-015-_U86
340
0
  0
BLOCK_RECORD
  5
EE
330
1
100
AcDbSymbolTableRecord
100
AcDbBlockTableRecord
  2
-016-_U87
340
0
  0
BLOCK_RECORD
  5
F2
330
1
100
AcDbSymbolTableRecord
100
AcDbBlockTableRecord
  2
-017-_U88
340
0
  0
BLOCK_RECORD
  5
F6
330
1
100
AcDbSymbolTableRecord
100
AcDbBlockTableRecord
  2
-018-_U89
340
0
  0
BLOCK_RECORD
  5
FA
330
1
100
AcDbSymbolTableRecord
100
AcDbBlockTableRecord
  2
-019-_U90
340
0
102
{BLKREFS
331
9C0
102
}
  0
BLOCK_RECORD
  5
FE
330
1
100
AcDbSymbolTableRecord
100
AcDbBlockTableRecord
  2
-020-_U91
340
0
102
{BLKREFS
331
9C1
102
}
  0
BLOCK_RECORD
  5
102
330
1
100
AcDbSymbolTableRecord
100
AcDbBlockTableRecord
  2
-021-_U92
340
0
102
{BLKREFS
331
9C2
102
}
  0
BLOCK_RECORD
  5
106
330
1
100
AcDbSymbolTableRecord
100
AcDbBlockTableRecord
  2
-022-_U93
340
0
102
{BLKREFS
331
9C3
102
}
  0
BLOCK_RECORD
  5
10A
330
1
100
AcDbSymbolTableRecord
100
AcDbBlockTableRecord
  2
-023-_U95
340
0
  0
BLOCK_RECORD
  5
10E
330
1
100
AcDbSymbolTableRecord
100
AcDbBlockTableRecord
  2
-024-_U96
340
0
  0
BLOCK_RECORD
  5
112
330
1
100
AcDbSymbolTableRecord
100
AcDbBlockTableRecord
  2
-025-_U97
340
0
102
{BLKREFS
331
A40
102
}
  0
BLOCK_RECORD
  5
116
330
1
100
AcDbSymbolTableRecord
100
AcDbBlockTableRecord
  2
-026-_U98
340
0
102
{BLKREFS
331
A41
102
}
  0
BLOCK_RECORD
  5
11A
330
1
100
AcDbSymbolTableRecord
100
AcDbBlockTableRecord
  2
-027-_U99
340
0
102
{BLKREFS
331
A42
102
}
  0
BLOCK_RECORD
  5
11E
330
1
100
AcDbSymbolTableRecord
100
AcDbBlockTableRecord
  2
-028-_U100
340
0
102
{BLKREFS
331
A43
102
}
  0
BLOCK_RECORD
  5
122
330
1
100
AcDbSymbolTableRecord
100
AcDbBlockTableRecord
  2
-029-_U101
340
0
102
{BLKREFS
331
A44
102
}
  0
BLOCK_RECORD
  5
126
330
1
100
AcDbSymbolTableRecord
100
AcDbBlockTableRecord
  2
-030-_U102
340
0
102
{BLKREFS
331
A45
102
}
  0
BLOCK_RECORD
  5
12A
330
1
100
AcDbSymbolTableRecord
100
AcDbBlockTableRecord
  2
-031-_U103
340
0
102
{BLKREFS
331
A56
102
}
  0
BLOCK_RECORD
  5
12E
330
1
100
AcDbSymbolTableRecord
100
AcDbBlockTableRecord
  2
-032-_U158
340
0
102
{BLKREFS
331
13A
102
}
  0
BLOCK_RECORD
  5
132
330
1
100
AcDbSymbolTableRecord
100
AcDbBlockTableRecord
  2
-033-_D104
340
0
102
{BLKREFS
331
396
102
}
  0
BLOCK_RECORD
  5
140
330
1
100
AcDbSymbolTableRecord
100
AcDbBlockTableRecord
  2
-034-_U152
340
0
102
{BLKREFS
331
14B
102
}
  0
BLOCK_RECORD
  5
144
330
1
100
AcDbSymbolTableRecord
100
AcDbBlockTableRecord
  2
-035-_D105
340
0
102
{BLKREFS
331
609
102
}
  0
BLOCK_RECORD
  5
150
330
1
100
AcDbSymbolTableRecord
100
AcDbBlockTableRecord
  2
-036-_U154
340
0
102
{BLKREFS
331
15B
102
}
  0
BLOCK_RECORD
  5
154
330
1
100
AcDbSymbolTableRecord
100
AcDbBlockTableRecord
  2
-037-_D106
340
0
102
{BLKREFS
331
60A
102
}
  0
BLOCK_RECORD
  5
160
330
1
100
AcDbSymbolTableRecord
100
AcDbBlockTableRecord
  2
-038-_U153
340
0
102
{BLKREFS
331
16B
102
}
  0
BLOCK_RECORD
  5
164
330
1
100
AcDbSymbolTableRecord
100
AcDbBlockTableRecord
  2
-039-_D107
340
0
102
{BLKREFS
331
60B
102
}
  0
BLOCK_RECORD
  5
170
330
1
100
AcDbSymbolTableRecord
100
AcDbBlockTableRecord
  2
-040-_U160
340
0
102
{BLKREFS
331
17B
102
}
  0
BLOCK_RECORD
  5
174
330
1
100
AcDbSymbolTableRecord
100
AcDbBlockTableRecord
  2
-041-_D108
340
0
102
{BLKREFS
331
9A8
102
}
  0
BLOCK_RECORD
  5
180
330
1
100
AcDbSymbolTableRecord
100
AcDbBlockTableRecord
  2
-042-_U157
340
0
102
{BLKREFS
331
18B
102
}
  0
BLOCK_RECORD
  5
184
330
1
100
AcDbSymbolTableRecord
100
AcDbBlockTableRecord
  2
-043-_D109
340
0
102
{BLKREFS
331
9A9
102
}
  0
BLOCK_RECORD
  5
190
330
1
100
AcDbSymbolTableRecord
100
AcDbBlockTableRecord
  2
-044-_U155
340
0
102
{BLKREFS
331
19B
102
}
  0
BLOCK_RECORD
  5
194
330
1
100
AcDbSymbolTableRecord
100
AcDbBlockTableRecord
  2
-045-_D110
340
0
102
{BLKREFS
331
9AA
102
}
  0
BLOCK_RECORD
  5
1A0
330
1
100
AcDbSymbolTableRecord
100
AcDbBlockTableRecord
  2
-046-_U156
340
0
102
{BLKREFS
331
1AB
102
}
  0
BLOCK_RECORD
  5
1A4
330
1
100
AcDbSymbolTableRecord
100
AcDbBlockTableRecord
  2
-047-_D111
340
0
102
{BLKREFS
331
9AB
102
}
  0
BLOCK_RECORD
  5
1B0
330
1
100
AcDbSymbolTableRecord
100
AcDbBlockTableRecord
  2
-048-_U162
340
0
102
{BLKREFS
331
1BC
102
}
  0
BLOCK_RECORD
  5
1B4
330
1
100
AcDbSymbolTableRecord
100
AcDbBlockTableRecord
  2
-049-_D112
340
0
102
{BLKREFS
331
9AC
102
}
  0
BLOCK_RECORD
  5
1C1
330
1
100
AcDbSymbolTableRecord
100
AcDbBlockTableRecord
  2
-050-_U151
340
0
102
{BLKREFS
331
1CD
102
}
  0
BLOCK_RECORD
  5
1C5
330
1
100
AcDbSymbolTableRecord
100
AcDbBlockTableRecord
  2
-051-_D113
340
0
102
{BLKREFS
331
9AD
102
}
  0
BLOCK_RECORD
  5
1D2
330
1
100
AcDbSymbolTableRecord
100
AcDbBlockTableRecord
  2
-052-_U159
340
0
102
{BLKREFS
331
1DE
102
}
  0
BLOCK_RECORD
  5
1D6
330
1
100
AcDbSymbolTableRecord
100
AcDbBlockTableRecord
  2
-053-_D114
340
0
102
{BLKREFS
331
9C4
102
}
  0
BLOCK_RECORD
  5
1E3
330
1
100
AcDbSymbolTableRecord
100
AcDbBlockTableRecord
  2
-054-_U161
340
0
102
{BLKREFS
331
1EF
102
}
  0
BLOCK_RECORD
  5
1E7
330
1
100
AcDbSymbolTableRecord
100
AcDbBlockTableRecord
  2
-055-_D115
340
0
102
{BLKREFS
331
9C5
102
}
  0
BLOCK_RECORD
  5
1F4
330
1
100
AcDbSymbolTableRecord
100
AcDbBlockTableRecord
  2
-056-_U169
340
0
102
{BLKREFS
331
1FF
102
}
  0
BLOCK_RECORD
  5
1F8
330
1
100
AcDbSymbolTableRecord
100
AcDbBlockTableRecord
  2
-057-_D117
340
0
102
{BLKREFS
331
9C9
102
}
  0
BLOCK_RECORD
  5
204
330
1
100
AcDbSymbolTableRecord
100
AcDbBlockTableRecord
  2
-058-_U170
340
0
102
{BLKREFS
331
20F
102
}
  0
BLOCK_RECORD
  5
208
330
1
100
AcDbSymbolTableRecord
100
AcDbBlockTableRecord
  2
-059-_D118
340
0
102
{BLKREFS
331
9CE
102
}
  0
BLOCK_RECORD
  5
214
330
1
100
AcDbSymbolTableRecord
100
AcDbBlockTableRecord
  2
-060-_U171
340
0
102
{BLKREFS
331
21F
102
}
  0
BLOCK_RECORD
  5
218
330
1
100
AcDbSymbolTableRecord
100
AcDbBlockTableRecord
  2
-061-_D119
340
0
102
{BLKREFS
331
9E9
102
}
  0
BLOCK_RECORD
  5
224
330
1
100
AcDbSymbolTableRecord
100
AcDbBlockTableRecord
  2
-062-_U172
340
0
102
{BLKREFS
331
22F
102
}
  0
BLOCK_RECORD
  5
228
330
1
100
AcDbSymbolTableRecord
100
AcDbBlockTableRecord
  2
-063-_D120
340
0
102
{BLKREFS
331
9EA
102
}
  0
BLOCK_RECORD
  5
234
330
1
100
AcDbSymbolTableRecord
100
AcDbBlockTableRecord
  2
-064-_U173
340
0
102
{BLKREFS
331
23F
102
}
  0
BLOCK_RECORD
  5
238
330
1
100
AcDbSymbolTableRecord
100
AcDbBlockTableRecord
  2
-065-_D121
340
0
102
{BLKREFS
331
9EB
102
}
  0
BLOCK_RECORD
  5
244
330
1
100
AcDbSymbolTableRecord
100
AcDbBlockTableRecord
  2
-066-_U174
340
0
102
{BLKREFS
331
24F
102
}
  0
BLOCK_RECORD
  5
248
330
1
100
AcDbSymbolTableRecord
100
AcDbBlockTableRecord
  2
-067-_D122
340
0
102
{BLKREFS
331
9EC
102
}
  0
BLOCK_RECORD
  5
254
330
1
100
AcDbSymbolTableRecord
100
AcDbBlockTableRecord
  2
-068-_D123
340
0
102
{BLKREFS
331
9ED
102
}
  0
BLOCK_RECORD
  5
260
330
1
100
AcDbSymbolTableRecord
100
AcDbBlockTableRecord
  2
-069-_U163
340
0
102
{BLKREFS
331
26B
102
}
  0
BLOCK_RECORD
  5
264
330
1
100
AcDbSymbolTableRecord
100
AcDbBlockTableRecord
  2
-070-_D124
340
0
102
{BLKREFS
331
9EE
102
}
  0
BLOCK_RECORD
  5
270
330
1
100
AcDbSymbolTableRecord
100
AcDbBlockTableRecord
  2
-071-_U164
340
0
102
{BLKREFS
331
27B
102
}
  0
BLOCK_RECORD
  5
274
330
1
100
AcDbSymbolTableRecord
100
AcDbBlockTableRecord
  2
-072-_D125
340
0
102
{BLKREFS
331
9F1
102
}
  0
BLOCK_RECORD
  5
280
330
1
100
AcDbSymbolTableRecord
100
AcDbBlockTableRecord
  2
-073-_U165
340
0
102
{BLKREFS
331
28B
102
}
  0
BLOCK_RECORD
  5
284
330
1
100
AcDbSymbolTableRecord
100
AcDbBlockTableRecord
  2
-074-_D126
340
0
102
{BLKREFS
331
9F8
102
}
  0
BLOCK_RECORD
  5
290
330
1
100
AcDbSymbolTableRecord
100
AcDbBlockTableRecord
  2
-075-_U166
340
0
102
{BLKREFS
331
29B
102
}
  0
BLOCK_RECORD
  5
294
330
1
100
AcDbSymbolTableRecord
100
AcDbBlockTableRecord
  2
-076-_D127
340
0
102
{BLKREFS
331
A01
102
}
  0
BLOCK_RECORD
  5
2A0
330
1
100
AcDbSymbolTableRecord
100
AcDbBlockTableRecord
  2
-077-_U167
340
0
102
{BLKREFS
331
2AB
102
}
  0
BLOCK_RECORD
  5
2A4
330
1
100
AcDbSymbolTableRecord
100
AcDbBlockTableRecord
  2
-078-_D128
340
0
102
{BLKREFS
331
A13
102
}
  0
BLOCK_RECORD
  5
2B0
330
1
100
AcDbSymbolTableRecord
100
AcDbBlockTableRecord
  2
-079-_U168
340
0
102
{BLKREFS
331
2BB
102
}
  0
BLOCK_RECORD
  5
2B4
330
1
100
AcDbSymbolTableRecord
100
AcDbBlockTableRecord
  2
-080-_D129
340
0
102
{BLKREFS
331
A14
102
}
  0
BLOCK_RECORD
  5
2C0
330
1
100
AcDbSymbolTableRecord
100
AcDbBlockTableRecord
  2
-081-_D130
340
0
102
{BLKREFS
331
A15
102
}
  0
BLOCK_RECORD
  5
2CC
330
1
100
AcDbSymbolTableRecord
100
AcDbBlockTableRecord
  2
-082-_U147
340
0
102
{BLKREFS
331
2D7
102
}
  0
BLOCK_RECORD
  5
2D0
330
1
100
AcDbSymbolTableRecord
100
AcDbBlockTableRecord
  2
-083-_D131
340
0
  0
BLOCK_RECORD
  5
2DC
330
1
100
AcDbSymbolTableRecord
100
AcDbBlockTableRecord
  2
-084-_U148
340
0
102
{BLKREFS
331
2E7
102
}
  0
BLOCK_RECORD
  5
2E0
330
1
100
AcDbSymbolTableRecord
100
AcDbBlockTableRecord
  2
-085-_D132
340
0
  0
BLOCK_RECORD
  5
2EC
330
1
100
AcDbSymbolTableRecord
100
AcDbBlockTableRecord
  2
-086-_U149
340
0
102
{BLKREFS
331
2F7
102
}
  0
BLOCK_RECORD
  5
2F0
330
1
100
AcDbSymbolTableRecord
100
AcDbBlockTableRecord
  2
-087-_D133
340
0
  0
BLOCK_RECORD
  5
2FC
330
1
100
AcDbSymbolTableRecord
100
AcDbBlockTableRecord
  2
-088-_U150
340
0
102
{BLKREFS
331
307
102
}
  0
BLOCK_RECORD
  5
300
330
1
100
AcDbSymbolTableRecord
100
AcDbBlockTableRecord
  2
-089-_D134
340
0
  0
BLOCK_RECORD
  5
30C
330
1
100
AcDbSymbolTableRecord
100
AcDbBlockTableRecord
  2
-090-_U175
340
0
102
{BLKREFS
331
317
102
}
  0
BLOCK_RECORD
  5
310
330
1
100
AcDbSymbolTableRecord
100
AcDbBlockTableRecord
  2
-091-_D135
340
0
102
{BLKREFS
331
A46
102
}
  0
BLOCK_RECORD
  5
31C
330
1
100
AcDbSymbolTableRecord
100
AcDbBlockTableRecord
  2
-092-_U176
340
0
102
{BLKREFS
331
327
102
}
  0
BLOCK_RECORD
  5
320
330
1
100
AcDbSymbolTableRecord
100
AcDbBlockTableRecord
  2
-093-_D136
340
0
102
{BLKREFS
331
A47
102
}
  0
BLOCK_RECORD
  5
32C
330
1
100
AcDbSymbolTableRecord
100
AcDbBlockTableRecord
  2
-094-_U177
340
0
102
{BLKREFS
331
337
102
}
  0
BLOCK_RECORD
  5
330
330
1
100
AcDbSymbolTableRecord
100
AcDbBlockTableRecord
  2
-095-_D137
340
0
102
{BLKREFS
331
A4A
102
}
  0
BLOCK_RECORD
  5
33C
330
1
100
AcDbSymbolTableRecord
100
AcDbBlockTableRecord
  2
-096-_U178
340
0
102
{BLKREFS
331
347
102
}
  0
BLOCK_RECORD
  5
340
330
1
100
AcDbSymbolTableRecord
100
AcDbBlockTableRecord
  2
-097-_D138
340
0
  0
BLOCK_RECORD
  5
34C
330
1
100
AcDbSymbolTableRecord
100
AcDbBlockTableRecord
  2
-098-_U179
340
0
102
{BLKREFS
331
357
102
}
  0
BLOCK_RECORD
  5
350
330
1
100
AcDbSymbolTableRecord
100
AcDbBlockTableRecord
  2
-099-_D139
340
0
  0
BLOCK_RECORD
  5
35C
330
1
100
AcDbSymbolTableRecord
100
AcDbBlockTableRecord
  2
-100-_U180
340
0
102
{BLKREFS
331
367
102
}
  0
BLOCK_RECORD
  5
360
330
1
100
AcDbSymbolTableRecord
100
AcDbBlockTableRecord
  2
-101-_D140
340
0
  0
BLOCK_RECORD
  5
36C
330
1
100
AcDbSymbolTableRecord
100
AcDbBlockTableRecord
  2
-102-_U181
340
0
102
{BLKREFS
331
377
102
}
  0
BLOCK_RECORD
  5
370
330
1
100
AcDbSymbolTableRecord
100
AcDbBlockTableRecord
  2
-103-_D141
340
0
  0
ENDTAB
  0
ENDSEC
  0
SECTION
  2
BLOCKS
  0
BLOCK
  5
70
330
6F
100
AcDbEntity
  8
0
100
AcDbBlockBegin
  2
*Model_Space
 70
     0
 10
0.0
 20
0.0
 30
0.0
  3
*Model_Space
  1

  0
ENDBLK
  5
71
330
6F
100
AcDbEntity
  8
0
100
AcDbBlockEnd
  0
BLOCK
  5
6C
330
6B
100
AcDbEntity
 67
     1
  8
0
100
AcDbBlockBegin
  2
*Paper_Space
 70
     0
 10
0.0
 20
0.0
 30
0.0
  3
*Paper_Space
  1

  0
ENDBLK
  5
6D
330
6B
100
AcDbEntity
 67
     1
  8
0
100
AcDbBlockEnd
  0
BLOCK
  5
A2
330
A1
100
AcDbEntity
  8
0
100
AcDbBlockBegin
  2
-000-F-1
 70
     0
 10
0.0
 20
0.0
 30
0.0
  3
-000-F-1
  1

  0
LINE
  5
A3
330
A1
100
AcDbEntity
  8
_0-0_0
  6
Continuous
 62
     7
100
AcDbLine
 10
38.99999999999909
 20
0.0
 30
0.0
 11
38.99999999999909
 21
-0.9999999999998864
 31
0.0
  0
LINE
  5
A4
330
A1
100
AcDbEntity
  8
_0-0_0
  6
Continuous
 62
     7
100
AcDbLine
 10
0.0
 20
0.0
 30
0.0
 11
38.99999999999909
 21
0.0
 31
0.0
  0
LINE
  5
A5
330
A1
100
AcDbEntity
  8
_0-0_0
  6
Continuous
 62
     7
100
AcDbLine
 10
13.99999999999909
 20
-0.9999999999998864
 30
0.0
 11
39.0000000000009
 21
-0.9999999999998864
 31
0.0
  0
LINE
  5
A6
330
A1
100
AcDbEntity
  8
_0-0_0
  6
Continuous
 62
     7
100
AcDbLine
 10
26.99999999999909
 20
-12.49999999999988
 30
0.0
 11
27.0
 21
-15.49999999999988
 31
0.0
  0
LINE
  5
A7
330
A1
100
AcDbEntity
  8
_0-0_0
  6
Continuous
 62
     7
100
AcDbLine
 10
28.0
 20
-12.49999999999988
 30
0.0
 11
28.00000000000091
 21
-16.49999999999988
 31
0.0
  0
LINE
  5
A8
330
A1
100
AcDbEntity
  8
_0-0_0
  6
Continuous
 62
     7
100
AcDbLine
 10
27.0
 20
-12.49999999999988
 30
0.0
 11
28.00000000000091
 21
-12.49999999999988
 31
0.0
  0
LINE
  5
A9
330
A1
100
AcDbEntity
  8
_0-0_0
  6
Continuous
 62
     7
100
AcDbLine
 10
14.0
 20
-15.49999999999988
 30
0.0
 11
27.0
 21
-15.49999999999988
 31
0.0
  0
LINE
  5
AA
330
A1
100
AcDbEntity
  8
_0-0_0
  6
Continuous
 62
     7
100
AcDbLine
 10
12.99999999999909
 20
-16.49999999999988
 30
0.0
 11
28.00000000000181
 21
-16.49999999999988
 31
0.0
  0
LINE
  5
AB
330
A1
100
AcDbEntity
  8
_0-0_0
  6
Continuous
 62
     7
100
AcDbLine
 10
13.99999999999909
 20
-0.9999999999998864
 30
0.0
 11
14.0
 21
-15.49999999999988
 31
0.0
  0
LINE
  5
AC
330
A1
100
AcDbEntity
  8
_0-0_0
  6
Continuous
 62
     7
100
AcDbLine
 10
12.99999999999909
 20
-0.9999999999998864
 30
0.0
 11
12.99999999999909
 21
-16.49999999999988
 31
0.0
  0
LINE
  5
AD
330
A1
100
AcDbEntity
  8
_0-0_0
  6
Continuous
 62
     7
100
AcDbLine
 10
0.0
 20
-0.9999999999998864
 30
0.0
 11
12.99999999999909
 21
-0.9999999999998864
 31
0.0
  0
LINE
  5
AE
330
A1
100
AcDbEntity
  8
_0-0_0
  6
Continuous
 62
     7
100
AcDbLine
 10
-0.0000000000009095
 20
0.0
 30
0.0
 11
-0.000000000001819
 21
-0.9999999999998864
 31
0.0
  0
ENDBLK
  5
AF
330
A1
100
AcDbEntity
  8
0
100
AcDbBlockEnd
  0
BLOCK
  5
B1
330
B0
100
AcDbEntity
  8
0
100
AcDbBlockBegin
  2
-001-_DOTBLANK
 70
     0
 10
0.0
 20
0.0
 30
0.0
  3
-001-_DOTBLANK
  1

  0
CIRCLE
  5
B2
330
B0
100
AcDbEntity
  8
_0-0_0
  6
Continuous
 62
     7
100
AcDbCircle
 10
0.0
 20
0.0
 30
0.0
 40
0.5
  0
LINE
  5
B3
330
B0
100
AcDbEntity
  8
_0-0_0
  6
Continuous
 62
     7
100
AcDbLine
 10
-0.5
 20
0.0
 30
0.0
 11
-1.0
 21
0.0
 31
0.0
  0
ENDBLK
  5
B4
330
B0
100
AcDbEntity
  8
0
100
AcDbBlockEnd
  0
BLOCK
  5
B6
330
B5
100
AcDbEntity
  8
0
100
AcDbBlockBegin
  2
-002-_U73
 70
     0
 10
0.0
 20
0.0
 30
0.0
  3
-002-_U73
  1

  0
TEXT
  5
B7
330
B5
100
AcDbEntity
  8
_0-1_Ｓ
 62
     7
100
AcDbText
 10
9314.843327226695
 20
-7299.587929384104
 30
0.0
 40
3.949703999999999
  1
フックシステム
100
AcDbText
  0
ENDBLK
  5
B8
330
B5
100
AcDbEntity
  8
0
100
AcDbBlockEnd
  0
BLOCK
  5
BA
330
B9
100
AcDbEntity
  8
0
100
AcDbBlockBegin
  2
-003-_U74
 70
     0
 10
0.0
 20
0.0
 30
0.0
  3
-003-_U74
  1

  0
TEXT
  5
BB
330
B9
100
AcDbEntity
  8
_0-1_Ｓ
 62
     7
100
AcDbText
 10
9316.087089768513
 20
-7309.442798091452
 30
0.0
 40
3.933333333333331
  1
製品断面詳細図
100
AcDbText
  0
ENDBLK
  5
BC
330
B9
100
AcDbEntity
  8
0
100
AcDbBlockEnd
  0
BLOCK
  5
BE
330
BD
100
AcDbEntity
  8
0
100
AcDbBlockBegin
  2
-004-_U75
 70
     0
 10
0.0
 20
0.0
 30
0.0
  3
-004-_U75
  1

  0
TEXT
  5
BF
330
BD
100
AcDbEntity
  8
_0-0_0
 62
     7
100
AcDbText
 10
9295.168623004189
 20
-7309.625556477975
 30
0.0
 40
3.949703999999999
  1
図面名
100
AcDbText
  0
ENDBLK
  5
C0
330
BD
100
AcDbEntity
  8
0
100
AcDbBlockEnd
  0
BLOCK
  5
C2
330
C1
100
AcDbEntity
  8
0
100
AcDbBlockBegin
  2
-005-_U76
 70
     0
 10
0.0
 20
0.0
 30
0.0
  3
-005-_U76
  1

  0
TEXT
  5
C3
330
C1
100
AcDbEntity
  8
_0-0_0
 62
     7
100
AcDbText
 10
9295.431936604193
 20
-7299.587929384104
 30
0.0
 40
3.949703999999999
  1
工事名
100
AcDbText
  0
ENDBLK
  5
C4
330
C1
100
AcDbEntity
  8
0
100
AcDbBlockEnd
  0
BLOCK
  5
C6
330
C5
100
AcDbEntity
  8
0
100
AcDbBlockBegin
  2
-006-_U77
 70
     0
 10
0.0
 20
0.0
 30
0.0
  3
-006-_U77
  1

  0
TEXT
  5
C7
330
C5
100
AcDbEntity
  8
_0-0_0
 62
     7
100
AcDbText
 10
9242.485759538267
 20
-7306.483455224494
 30
0.0
 40
3.011290236072452
  1
縮尺
100
AcDbText
  0
ENDBLK
  5
C8
330
C5
100
AcDbEntity
  8
0
100
AcDbBlockEnd
  0
BLOCK
  5
CA
330
C9
100
AcDbEntity
  8
0
100
AcDbBlockBegin
  2
-007-_U78
 70
     0
 10
0.0
 20
0.0
 30
0.0
  3
-007-_U78
  1

  0
TEXT
  5
CB
330
C9
100
AcDbEntity
  8
_0-0_0
 62
     7
100
AcDbText
 10
9242.485759538267
 20
-7296.445828130592
 30
0.0
 40
3.011290236072452
  1
作成
100
AcDbText
  0
ENDBLK
  5
CC
330
C9
100
AcDbEntity
  8
0
100
AcDbBlockEnd
  0
BLOCK
  5
CE
330
CD
100
AcDbEntity
  8
0
100
AcDbBlockBegin
  2
-008-_U79
 70
     0
 10
0.0
 20
0.0
 30
0.0
  3
-008-_U79
  1

  0
TEXT
  5
CF
330
CD
100
AcDbEntity
  8
_0-1_Ｓ
 62
     7
100
AcDbText
 10
9264.267262682453
 20
-7311.52121393805
 30
0.0
 40
3.011290236072452
  1
1　/　2
100
AcDbText
  0
ENDBLK
  5
D0
330
CD
100
AcDbEntity
  8
0
100
AcDbBlockEnd
  0
BLOCK
  5
D2
330
D1
100
AcDbEntity
  8
0
100
AcDbBlockBegin
  2
-009-_U80
 70
     0
 10
0.0
 20
0.0
 30
0.0
  3
-009-_U80
  1

  0
TEXT
  5
D3
330
D1
100
AcDbEntity
  8
_0-1_Ｓ
 62
     7
100
AcDbText
 10
9248.59165667415
 20
-7301.5029224449
 30
0.0
 40
3.011290236072452
  1
平成17年　 2月　 1日
100
AcDbText
  0
ENDBLK
  5
D4
330
D1
100
AcDbEntity
  8
0
100
AcDbBlockEnd
  0
BLOCK
  5
D6
330
D5
100
AcDbEntity
  8
0
100
AcDbBlockBegin
  2
-010-_U81
 70
     0
 10
0.0
 20
0.0
 30
0.0
  3
-010-_U81
  1

  0
TEXT
  5
D7
330
D5
100
AcDbEntity
  8
_0-0_0
 62
     7
100
AcDbText
 10
9206.483893559854
 20
-7296.408589207834
 30
0.0
 40
3.011290236072452
  1
設　計
100
AcDbText
  0
ENDBLK
  5
D8
330
D5
100
AcDbEntity
  8
0
100
AcDbBlockEnd
  0
BLOCK
  5
DA
330
D9
100
AcDbEntity
  8
0
100
AcDbBlockBegin
  2
-011-_U82
 70
     0
 10
0.0
 20
0.0
 30
0.0
  3
-011-_U82
  1

  0
TEXT
  5
DB
330
D9
100
AcDbEntity
  8
_0-1_Ｓ
 62
     7
100
AcDbText
 10
9225.980787994499
 20
-7306.758851726154
 30
0.0
 40
3.455990999999999
  1
壷　井
100
AcDbText
  0
ENDBLK
  5
DC
330
D9
100
AcDbEntity
  8
0
100
AcDbBlockEnd
  0
BLOCK
  5
DE
330
DD
100
AcDbEntity
  8
0
100
AcDbBlockBegin
  2
-012-_U83
 70
     0
 10
0.0
 20
0.0
 30
0.0
  3
-012-_U83
  1

  0
TEXT
  5
DF
330
DD
100
AcDbEntity
  8
_0-0_0
 62
     7
100
AcDbText
 10
9226.559161800324
 20
-7296.408589207834
 30
0.0
 40
3.011290236072452
  1
製　図
100
AcDbText
  0
ENDBLK
  5
E0
330
DD
100
AcDbEntity
  8
0
100
AcDbBlockEnd
  0
BLOCK
  5
E2
330
E1
100
AcDbEntity
  8
0
100
AcDbBlockBegin
  2
-013-_U84
 70
     0
 10
0.0
 20
0.0
 30
0.0
  3
-013-_U84
  1

  0
TEXT
  5
E3
330
E1
100
AcDbEntity
  8
_0-1_Ｓ
 62
     7
100
AcDbText
 10
8781.131175437131
 20
-7143.683611781153
 30
0.0
 40
6.0
  1
F-1  type
100
AcDbText
  0
ENDBLK
  5
E4
330
E1
100
AcDbEntity
  8
0
100
AcDbBlockEnd
  0
BLOCK
  5
E6
330
E5
100
AcDbEntity
  8
0
100
AcDbBlockBegin
  2
-014-_U85
 70
     0
 10
0.0
 20
0.0
 30
0.0
  3
-014-_U85
  1

  0
TEXT
  5
E7
330
E5
100
AcDbEntity
  8
_0-1_Ｓ
 62
     7
100
AcDbText
 10
9046.697355667214
 20
-7143.976837202368
 30
0.0
 40
6.0
  1
F-2
100
AcDbText
  0
TEXT
  5
E8
330
E5
100
AcDbEntity
  8
_0-1_Ｓ
 62
     7
100
AcDbText
 10
9060.231446576301
 20
-7143.976837202368
 30
0.0
 40
6.0
  1
  type
100
AcDbText
  0
ENDBLK
  5
E9
330
E5
100
AcDbEntity
  8
0
100
AcDbBlockEnd
  0
BLOCK
  5
EB
330
EA
100
AcDbEntity
  8
0
100
AcDbBlockBegin
  2
-015-_U86
 70
     0
 10
0.0
 20
0.0
 30
0.0
  3
-015-_U86
  1

  0
TEXT
  5
EC
330
EA
100
AcDbEntity
  8
_0-0_0
 62
     7
100
AcDbText
 10
9530.991108207393
 20
-7296.350972896478
 30
0.0
 40
3.011290236072452
  1
図面番号
100
AcDbText
  0
ENDBLK
  5
ED
330
EA
100
AcDbEntity
  8
0
100
AcDbBlockEnd
  0
BLOCK
  5
EF
330
EE
100
AcDbEntity
  8
0
100
AcDbBlockBegin
  2
-016-_U87
 70
     0
 10
0.0
 20
0.0
 30
0.0
  3
-016-_U87
  1

  0
TEXT
  5
F0
330
EE
100
AcDbEntity
  8
_0-0_0
 62
     7
100
AcDbText
 10
9506.097986379538
 20
-7296.350972896478
 30
0.0
 40
3.011290236072452
  1
工事番号
 41
0.8000000000000001
100
AcDbText
  0
ENDBLK
  5
F1
330
EE
100
AcDbEntity
  8
0
100
AcDbBlockEnd
  0
BLOCK
  5
F3
330
F2
100
AcDbEntity
  8
0
100
AcDbBlockBegin
  2
-017-_U88
 70
     0
 10
0.0
 20
0.0
 30
0.0
  3
-017-_U88
  1

  0
TEXT
  5
F4
330
F2
100
AcDbEntity
  8
_0-0_0
 62
     7
100
AcDbText
 10
9556.285996378621
 20
-7296.350972896478
 30
0.0
 40
3.011290236072452
  1
整理番号
100
AcDbText
  0
ENDBLK
  5
F5
330
F2
100
AcDbEntity
  8
0
100
AcDbBlockEnd
  0
BLOCK
  5
F7
330
F6
100
AcDbEntity
  8
0
100
AcDbBlockBegin
  2
-018-_U89
 70
     0
 10
0.0
 20
0.0
 30
0.0
  3
-018-_U89
  1

  0
TEXT
  5
F8
330
F6
100
AcDbEntity
  8
_0-1_Ｓ
 62
     7
100
AcDbText
 10
9561.971436258986
 20
-7306.925018293715
 30
0.0
 40
3.949703999999999
  1
2
100
AcDbText
  0
ENDBLK
  5
F9
330
F6
100
AcDbEntity
  8
0
100
AcDbBlockEnd
  0
BLOCK
  5
FB
330
FA
100
AcDbEntity
  8
0
100
AcDbBlockBegin
  2
-019-_U90
 70
     0
 10
0.0
 20
0.0
 30
0.0
  3
-019-_U90
  1

  0
TEXT
  5
FC
330
FA
100
AcDbEntity
  8
_0-1_Ｓ
 62
     7
100
AcDbText
 10
8806.368619239995
 20
-7177.518110775129
 30
0.0
 40
4.799999999999998
  1
板厚　 1.0mm
100
AcDbText
  0
ENDBLK
  5
FD
330
FA
100
AcDbEntity
  8
0
100
AcDbBlockEnd
  0
BLOCK
  5
FF
330
FE
100
AcDbEntity
  8
0
100
AcDbBlockBegin
  2
-020-_U91
 70
     0
 10
0.0
 20
0.0
 30
0.0
  3
-020-_U91
  1

  0
TEXT
  5
100
330
FE
100
AcDbEntity
  8
_0-1_Ｓ
 62
     7
100
AcDbText
 10
8805.728619239991
 20
-7167.218355844076
 30
0.0
 40
4.799999999999998
  1
Ｌ＝4,000mm
100
AcDbText
  0
ENDBLK
  5
101
330
FE
100
AcDbEntity
  8
0
100
AcDbBlockEnd
  0
BLOCK
  5
103
330
102
100
AcDbEntity
  8
0
100
AcDbBlockBegin
  2
-021-_U92
 70
     0
 10
0.0
 20
0.0
 30
0.0
  3
-021-_U92
  1

  0
TEXT
  5
104
330
102
100
AcDbEntity
  8
_0-1_Ｓ
 62
     7
100
AcDbText
 10
9073.370091152121
 20
-7177.518110775102
 30
0.0
 40
4.799999999999998
  1
板厚　 1.0mm
100
AcDbText
  0
ENDBLK
  5
105
330
102
100
AcDbEntity
  8
0
100
AcDbBlockEnd
  0
BLOCK
  5
107
330
106
100
AcDbEntity
  8
0
100
AcDbBlockBegin
  2
-022-_U93
 70
     0
 10
0.0
 20
0.0
 30
0.0
  3
-022-_U93
  1

  0
TEXT
  5
108
330
106
100
AcDbEntity
  8
_0-1_Ｓ
 62
     7
100
AcDbText
 10
9072.73009115212
 20
-7167.218355844051
 30
0.0
 40
4.799999999999998
  1
Ｌ＝4,000mm
100
AcDbText
  0
ENDBLK
  5
109
330
106
100
AcDbEntity
  8
0
100
AcDbBlockEnd
  0
BLOCK
  5
10B
330
10A
100
AcDbEntity
  8
0
100
AcDbBlockBegin
  2
-023-_U95
 70
     0
 10
0.0
 20
0.0
 30
0.0
  3
-023-_U95
  1

  0
TEXT
  5
10C
330
10A
100
AcDbEntity
  8
_0-1_Ｓ
 62
     7
100
AcDbText
 10
8807.392662651649
 20
-6795.930927034802
 30
0.0
 40
4.799999999999998
  1
板厚　  　0.8mm
100
AcDbText
  0
ENDBLK
  5
10D
330
10A
100
AcDbEntity
  8
0
100
AcDbBlockEnd
  0
BLOCK
  5
10F
330
10E
100
AcDbEntity
  8
0
100
AcDbBlockBegin
  2
-024-_U96
 70
     0
 10
0.0
 20
0.0
 30
0.0
  3
-024-_U96
  1

  0
TEXT
  5
110
330
10E
100
AcDbEntity
  8
_0-1_Ｓ
 62
     7
100
AcDbText
 10
8780.73117543713
 20
-6766.923199025818
 30
0.0
 40
6.0
  1
フックパネル　120
100
AcDbText
  0
ENDBLK
  5
111
330
10E
100
AcDbEntity
  8
0
100
AcDbBlockEnd
  0
BLOCK
  5
113
330
112
100
AcDbEntity
  8
0
100
AcDbBlockBegin
  2
-025-_U97
 70
     0
 10
0.0
 20
0.0
 30
0.0
  3
-025-_U97
  1

  0
TEXT
  5
114
330
112
100
AcDbEntity
  8
_0-1_Ｓ
 62
     7
100
AcDbText
 10
8805.728619239991
 20
-6978.457943088725
 30
0.0
 40
4.799999999999998
  1
Ｌ＝3,030mm
100
AcDbText
  0
ENDBLK
  5
115
330
112
100
AcDbEntity
  8
0
100
AcDbBlockEnd
  0
BLOCK
  5
117
330
116
100
AcDbEntity
  8
0
100
AcDbBlockBegin
  2
-026-_U98
 70
     0
 10
0.0
 20
0.0
 30
0.0
  3
-026-_U98
  1

  0
TEXT
  5
118
330
116
100
AcDbEntity
  8
_0-1_Ｓ
 62
     7
100
AcDbText
 10
8806.368619239995
 20
-6988.757698019779
 30
0.0
 40
4.799999999999998
  1
板厚　 0.8mm　0.4mm
100
AcDbText
  0
ENDBLK
  5
119
330
116
100
AcDbEntity
  8
0
100
AcDbBlockEnd
  0
BLOCK
  5
11B
330
11A
100
AcDbEntity
  8
0
100
AcDbBlockBegin
  2
-027-_U99
 70
     0
 10
0.0
 20
0.0
 30
0.0
  3
-027-_U99
  1

  0
TEXT
  5
11C
330
11A
100
AcDbEntity
  8
_0-1_Ｓ
 62
     7
100
AcDbText
 10
8781.131175437131
 20
-6954.923199025802
 30
0.0
 40
6.0
  1
F-16  type
100
AcDbText
  0
ENDBLK
  5
11D
330
11A
100
AcDbEntity
  8
0
100
AcDbBlockEnd
  0
BLOCK
  5
11F
330
11E
100
AcDbEntity
  8
0
100
AcDbBlockBegin
  2
-028-_U100
 70
     0
 10
0.0
 20
0.0
 30
0.0
  3
-028-_U100
  1

  0
TEXT
  5
120
330
11E
100
AcDbEntity
  8
_0-1_Ｓ
 62
     7
100
AcDbText
 10
9181.63264734926
 20
-6954.923199025817
 30
0.0
 40
6.0
  1
F-17  type
100
AcDbText
  0
ENDBLK
  5
121
330
11E
100
AcDbEntity
  8
0
100
AcDbBlockEnd
  0
BLOCK
  5
123
330
122
100
AcDbEntity
  8
0
100
AcDbBlockBegin
  2
-029-_U101
 70
     0
 10
0.0
 20
0.0
 30
0.0
  3
-029-_U101
  1

  0
TEXT
  5
124
330
122
100
AcDbEntity
  8
_0-1_Ｓ
 62
     7
100
AcDbText
 10
9206.870091152124
 20
-6988.757698019793
 30
0.0
 40
4.799999999999998
  1
板厚　 0.8mm　0.4mm
100
AcDbText
  0
ENDBLK
  5
125
330
122
100
AcDbEntity
  8
0
100
AcDbBlockEnd
  0
BLOCK
  5
127
330
126
100
AcDbEntity
  8
0
100
AcDbBlockBegin
  2
-030-_U102
 70
     0
 10
0.0
 20
0.0
 30
0.0
  3
-030-_U102
  1

  0
TEXT
  5
128
330
126
100
AcDbEntity
  8
_0-1_Ｓ
 62
     7
100
AcDbText
 10
9206.230091152123
 20
-6978.457943088741
 30
0.0
 40
4.799999999999998
  1
Ｌ＝3,030mm
100
AcDbText
  0
ENDBLK
  5
129
330
126
100
AcDbEntity
  8
0
100
AcDbBlockEnd
  0
BLOCK
  5
12B
330
12A
100
AcDbEntity
  8
0
100
AcDbBlockBegin
  2
-031-_U103
 70
     0
 10
0.0
 20
0.0
 30
0.0
  3
-031-_U103
  1

  0
TEXT
  5
12C
330
12A
100
AcDbEntity
  8
_0-1_Ｓ
 62
     7
100
AcDbText
 10
9181.232647349267
 20
-6766.923199025834
 30
0.0
 40
6.0
  1
フックバー　直ジョイント
100
AcDbText
  0
ENDBLK
  5
12D
330
12A
100
AcDbEntity
  8
0
100
AcDbBlockEnd
  0
BLOCK
  5
12F
330
12E
100
AcDbEntity
  8
0
100
AcDbBlockBegin
  2
-032-_U158
 70
     0
 10
0.0
 20
0.0
 30
0.0
  3
-032-_U158
  1

  0
TEXT
  5
130
330
12E
100
AcDbEntity
  8
_0-1_Ｓ
 62
     7
100
AcDbText
 10
9419.24913949318
 20
-7244.915748358938
 30
0.0
 40
5.0
  1
2
 50
90.0
100
AcDbText
  0
ENDBLK
  5
131
330
12E
100
AcDbEntity
  8
0
100
AcDbBlockEnd
  0
BLOCK
  5
133
330
132
100
AcDbEntity
  8
0
100
AcDbBlockBegin
  2
-033-_D104
 70
     0
 10
0.0
 20
0.0
 30
0.0
  3
-033-_D104
  1

  0
LINE
  5
134
330
132
100
AcDbEntity
  8
_0-1_Ｓ
  6
Continuous
 62
     7
100
AcDbLine
 10
9476.350581015607
 20
-7233.58241502561
 30
0.0
 11
9420.249139493177
 21
-7233.58241502561
 31
0.0
  0
LINE
  5
135
330
132
100
AcDbEntity
  8
_0-1_Ｓ
  6
Continuous
 62
     7
100
AcDbLine
 10
9476.350581015607
 20
-7235.582415025605
 30
0.0
 11
9420.249139493177
 21
-7235.582415025605
 31
0.0
  0
LINE
  5
136
330
132
100
AcDbEntity
  8
_0-1_Ｓ
  6
Continuous
 62
     7
100
AcDbLine
 10
9421.249139493177
 20
-7231.58241502561
 30
0.0
 11
9421.249139493177
 21
-7229.58241502561
 31
0.0
  0
LINE
  5
137
330
132
100
AcDbEntity
  8
_0-1_Ｓ
  6
Continuous
 62
     7
100
AcDbLine
 10
9421.249139493177
 20
-7237.582415025606
 30
0.0
 11
9421.249139493177
 21
-7246.915748358938
 31
0.0
  0
INSERT
  5
138
330
132
100
AcDbEntity
  8
_0-1_Ｓ
100
AcDbBlockReference
  2
-001-_DOTBLANK
 10
9421.249139493177
 20
-7233.58241502561
 30
0.0
 41
2.0
 42
2.0
 50
270.0
  0
INSERT
  5
139
330
132
100
AcDbEntity
  8
_0-1_Ｓ
100
AcDbBlockReference
  2
-001-_DOTBLANK
 10
9421.249139493177
 20
-7235.582415025605
 30
0.0
 41
2.0
 42
2.0
 50
90.0
  0
INSERT
  5
13A
330
132
100
AcDbEntity
  8
_0-1_Ｓ
100
AcDbBlockReference
  2
-032-_U158
 10
0.0
 20
0.0
 30
0.0
  0
POINT
  5
13C
330
132
100
AcDbEntity
  8
_0-4_DEFPOINTS
 62
     7
100
AcDbPoint
 10
9486.350581015605
 20
-7233.58241502561
 30
0.0
  0
POINT
  5
13D
330
132
100
AcDbEntity
  8
_0-4_DEFPOINTS
 62
     7
100
AcDbPoint
 10
9486.350581015607
 20
-7235.582415025605
 30
0.0
  0
POINT
  5
13E
330
132
100
AcDbEntity
  8
_0-4_DEFPOINTS
 62
     7
100
AcDbPoint
 10
9421.249139493177
 20
-7235.582415025605
 30
0.0
  0
ENDBLK
  5
13F
330
132
100
AcDbEntity
  8
0
100
AcDbBlockEnd
  0
BLOCK
  5
141
330
140
100
AcDbEntity
  8
0
100
AcDbBlockBegin
  2
-034-_U152
 70
     0
 10
0.0
 20
0.0
 30
0.0
  3
-034-_U152
  1

  0
TEXT
  5
142
330
140
100
AcDbEntity
  8
_0-1_Ｓ
 62
     7
100
AcDbText
 10
9203.184240542384
 20
-7172.25974924553
 30
0.0
 40
5.0
  1
39
100
AcDbText
  0
ENDBLK
  5
143
330
140
100
AcDbEntity
  8
0
100
AcDbBlockEnd
  0
BLOCK
  5
145
330
144
100
AcDbEntity
  8
0
100
AcDbBlockBegin
  2
-035-_D105
 70
     0
 10
0.0
 20
0.0
 30
0.0
  3
-035-_D105
  1

  0
LINE
  5
146
330
144
100
AcDbEntity
  8
_0-1_Ｓ
  6
Continuous
 62
     7
100
AcDbLine
 10
9187.850907209051
 20
-7202.611539039676
 30
0.0
 11
9187.850907209051
 21
-7173.25974924553
 31
0.0
  0
LINE
  5
147
330
144
100
AcDbEntity
  8
_0-1_Ｓ
  6
Continuous
 62
     7
100
AcDbLine
 10
9226.850907209051
 20
-7202.611539039676
 30
0.0
 11
9226.850907209051
 21
-7173.25974924553
 31
0.0
  0
LINE
  5
148
330
144
100
AcDbEntity
  8
_0-1_Ｓ
  6
Continuous
 62
     7
100
AcDbLine
 10
9189.850907209047
 20
-7174.25974924553
 30
0.0
 11
9224.850907209047
 21
-7174.25974924553
 31
0.0
  0
INSERT
  5
149
330
144
100
AcDbEntity
  8
_0-1_Ｓ
100
AcDbBlockReference
  2
-001-_DOTBLANK
 10
9187.850907209051
 20
-7174.25974924553
 30
0.0
 41
2.0
 42
2.0
 50
180.0
  0
INSERT
  5
14A
330
144
100
AcDbEntity
  8
_0-1_Ｓ
100
AcDbBlockReference
  2
-001-_DOTBLANK
 10
9226.850907209051
 20
-7174.25974924553
 30
0.0
 41
2.0
 42
2.0
  0
INSERT
  5
14B
330
144
100
AcDbEntity
  8
_0-1_Ｓ
100
AcDbBlockReference
  2
-034-_U152
 10
0.0
 20
0.0
 30
0.0
  0
POINT
  5
14C
330
144
100
AcDbEntity
  8
_0-4_DEFPOINTS
 62
     7
100
AcDbPoint
 10
9187.850907209051
 20
-7212.611539039676
 30
0.0
  0
POINT
  5
14D
330
144
100
AcDbEntity
  8
_0-4_DEFPOINTS
 62
     7
100
AcDbPoint
 10
9226.850907209051
 20
-7212.611539039676
 30
0.0
  0
POINT
  5
14E
330
144
100
AcDbEntity
  8
_0-4_DEFPOINTS
 62
     7
100
AcDbPoint
 10
9226.850907209051
 20
-7174.25974924553
 30
0.0
  0
ENDBLK
  5
14F
330
144
100
AcDbEntity
  8
0
100
AcDbBlockEnd
  0
BLOCK
  5
151
330
150
100
AcDbEntity
  8
0
100
AcDbBlockBegin
  2
-036-_U154
 70
     0
 10
0.0
 20
0.0
 30
0.0
  3
-036-_U154
  1

  0
TEXT
  5
152
330
150
100
AcDbEntity
  8
_0-1_Ｓ
 62
     7
100
AcDbText
 10
9205.01757387572
 20
-7267.301203824614
 30
0.0
 40
5.0
  1
15
100
AcDbText
  0
ENDBLK
  5
153
330
150
100
AcDbEntity
  8
0
100
AcDbBlockEnd
  0
BLOCK
  5
155
330
154
100
AcDbEntity
  8
0
100
AcDbBlockBegin
  2
-037-_D106
 70
     0
 10
0.0
 20
0.0
 30
0.0
  3
-037-_D106
  1

  0
LINE
  5
156
330
154
100
AcDbEntity
  8
_0-1_Ｓ
  6
Continuous
 62
     7
100
AcDbLine
 10
9200.850907209051
 20
-7239.111539039678
 30
0.0
 11
9200.850907209051
 21
-7270.301203824614
 31
0.0
  0
LINE
  5
157
330
154
100
AcDbEntity
  8
_0-1_Ｓ
  6
Continuous
 62
     7
100
AcDbLine
 10
9215.850907209055
 20
-7239.111539039678
 30
0.0
 11
9215.850907209055
 21
-7270.301203824614
 31
0.0
  0
LINE
  5
158
330
154
100
AcDbEntity
  8
_0-1_Ｓ
  6
Continuous
 62
     7
100
AcDbLine
 10
9202.850907209052
 20
-7269.301203824614
 30
0.0
 11
9213.850907209055
 21
-7269.301203824614
 31
0.0
  0
INSERT
  5
159
330
154
100
AcDbEntity
  8
_0-1_Ｓ
100
AcDbBlockReference
  2
-001-_DOTBLANK
 10
9200.850907209051
 20
-7269.301203824614
 30
0.0
 41
2.0
 42
2.0
 50
180.0
  0
INSERT
  5
15A
330
154
100
AcDbEntity
  8
_0-1_Ｓ
100
AcDbBlockReference
  2
-001-_DOTBLANK
 10
9215.850907209055
 20
-7269.301203824614
 30
0.0
 41
2.0
 42
2.0
  0
INSERT
  5
15B
330
154
100
AcDbEntity
  8
_0-1_Ｓ
100
AcDbBlockReference
  2
-036-_U154
 10
0.0
 20
0.0
 30
0.0
  0
POINT
  5
15C
330
154
100
AcDbEntity
  8
_0-4_DEFPOINTS
 62
     7
100
AcDbPoint
 10
9200.850907209051
 20
-7229.111539039678
 30
0.0
  0
POINT
  5
15D
330
154
100
AcDbEntity
  8
_0-4_DEFPOINTS
 62
     7
100
AcDbPoint
 10
9215.850907209055
 20
-7229.111539039678
 30
0.0
  0
POINT
  5
15E
330
154
100
AcDbEntity
  8
_0-4_DEFPOINTS
 62
     7
100
AcDbPoint
 10
9215.850907209055
 20
-7269.301203824614
 30
0.0
  0
ENDBLK
  5
15F
330
154
100
AcDbEntity
  8
0
100
AcDbBlockEnd
  0
BLOCK
  5
161
330
160
100
AcDbEntity
  8
0
100
AcDbBlockBegin
  2
-038-_U153
 70
     0
 10
0.0
 20
0.0
 30
0.0
  3
-038-_U153
  1

  0
TEXT
  5
162
330
160
100
AcDbEntity
  8
_0-1_Ｓ
 62
     7
100
AcDbText
 10
9134.024681502607
 20
-7227.528205706342
 30
0.0
 40
5.0
  1
16.5
 50
90.0
100
AcDbText
  0
ENDBLK
  5
163
330
160
100
AcDbEntity
  8
0
100
AcDbBlockEnd
  0
BLOCK
  5
165
330
164
100
AcDbEntity
  8
0
100
AcDbBlockBegin
  2
-039-_D107
 70
     0
 10
0.0
 20
0.0
 30
0.0
  3
-039-_D107
  1

  0
LINE
  5
166
330
164
100
AcDbEntity
  8
_0-1_Ｓ
  6
Continuous
 62
     7
100
AcDbLine
 10
9190.850907209052
 20
-7229.111539039678
 30
0.0
 11
9135.024681502608
 21
-7229.111539039678
 31
0.0
  0
LINE
  5
167
330
164
100
AcDbEntity
  8
_0-1_Ｓ
  6
Continuous
 62
     7
100
AcDbLine
 10
9177.850907209052
 20
-7212.611539039676
 30
0.0
 11
9135.024681502608
 21
-7212.611539039676
 31
0.0
  0
LINE
  5
168
330
164
100
AcDbEntity
  8
_0-1_Ｓ
  6
Continuous
 62
     7
100
AcDbLine
 10
9136.024681502608
 20
-7227.111539039679
 30
0.0
 11
9136.024681502608
 21
-7214.611539039676
 31
0.0
  0
INSERT
  5
169
330
164
100
AcDbEntity
  8
_0-1_Ｓ
100
AcDbBlockReference
  2
-001-_DOTBLANK
 10
9136.024681502608
 20
-7229.111539039678
 30
0.0
 41
2.0
 42
2.0
 50
270.0
  0
INSERT
  5
16A
330
164
100
AcDbEntity
  8
_0-1_Ｓ
100
AcDbBlockReference
  2
-001-_DOTBLANK
 10
9136.024681502608
 20
-7212.611539039676
 30
0.0
 41
2.0
 42
2.0
 50
90.0
  0
INSERT
  5
16B
330
164
100
AcDbEntity
  8
_0-1_Ｓ
100
AcDbBlockReference
  2
-038-_U153
 10
0.0
 20
0.0
 30
0.0
  0
POINT
  5
16C
330
164
100
AcDbEntity
  8
_0-4_DEFPOINTS
 62
     7
100
AcDbPoint
 10
9200.850907209051
 20
-7229.111539039678
 30
0.0
  0
POINT
  5
16D
330
164
100
AcDbEntity
  8
_0-4_DEFPOINTS
 62
     7
100
AcDbPoint
 10
9187.850907209051
 20
-7212.611539039676
 30
0.0
  0
POINT
  5
16E
330
164
100
AcDbEntity
  8
_0-4_DEFPOINTS
 62
     7
100
AcDbPoint
 10
9136.024681502608
 20
-7212.611539039676
 30
0.0
  0
ENDBLK
  5
16F
330
164
100
AcDbEntity
  8
0
100
AcDbBlockEnd
  0
BLOCK
  5
171
330
170
100
AcDbEntity
  8
0
100
AcDbBlockBegin
  2
-040-_U160
 70
     0
 10
0.0
 20
0.0
 30
0.0
  3
-040-_U160
  1

  0
TEXT
  5
172
330
170
100
AcDbEntity
  8
_0-1_Ｓ
 62
     7
100
AcDbText
 10
9492.600581015604
 20
-7273.840025856038
 30
0.0
 40
5.0
  1
20
100
AcDbText
  0
ENDBLK
  5
173
330
170
100
AcDbEntity
  8
0
100
AcDbBlockEnd
  0
BLOCK
  5
175
330
174
100
AcDbEntity
  8
0
100
AcDbBlockBegin
  2
-041-_D108
 70
     0
 10
0.0
 20
0.0
 30
0.0
  3
-041-_D108
  1

  0
LINE
  5
176
330
174
100
AcDbEntity
  8
_0-1_Ｓ
  6
Continuous
 62
     7
100
AcDbLine
 10
9486.350581015607
 20
-7245.582415025613
 30
0.0
 11
9486.350581015607
 21
-7276.840025856038
 31
0.0
  0
LINE
  5
177
330
174
100
AcDbEntity
  8
_0-1_Ｓ
  6
Continuous
 62
     7
100
AcDbLine
 10
9506.350581015604
 20
-7245.58241502561
 30
0.0
 11
9506.350581015604
 21
-7276.840025856038
 31
0.0
  0
LINE
  5
178
330
174
100
AcDbEntity
  8
_0-1_Ｓ
  6
Continuous
 62
     7
100
AcDbLine
 10
9488.350581015607
 20
-7275.840025856038
 30
0.0
 11
9504.350581015604
 21
-7275.840025856038
 31
0.0
  0
INSERT
  5
179
330
174
100
AcDbEntity
  8
_0-1_Ｓ
100
AcDbBlockReference
  2
-001-_DOTBLANK
 10
9486.350581015607
 20
-7275.840025856038
 30
0.0
 41
2.0
 42
2.0
 50
180.0
  0
INSERT
  5
17A
330
174
100
AcDbEntity
  8
_0-1_Ｓ
100
AcDbBlockReference
  2
-001-_DOTBLANK
 10
9506.350581015604
 20
-7275.840025856038
 30
0.0
 41
2.0
 42
2.0
  0
INSERT
  5
17B
330
174
100
AcDbEntity
  8
_0-1_Ｓ
100
AcDbBlockReference
  2
-040-_U160
 10
0.0
 20
0.0
 30
0.0
  0
POINT
  5
17C
330
174
100
AcDbEntity
  8
_0-4_DEFPOINTS
 62
     7
100
AcDbPoint
 10
9486.350581015607
 20
-7235.582415025611
 30
0.0
  0
POINT
  5
17D
330
174
100
AcDbEntity
  8
_0-4_DEFPOINTS
 62
     7
100
AcDbPoint
 10
9506.350581015604
 20
-7235.582415025611
 30
0.0
  0
POINT
  5
17E
330
174
100
AcDbEntity
  8
_0-4_DEFPOINTS
 62
     7
100
AcDbPoint
 10
9506.350581015604
 20
-7275.840025856038
 30
0.0
  0
ENDBLK
  5
17F
330
174
100
AcDbEntity
  8
0
100
AcDbBlockEnd
  0
BLOCK
  5
181
330
180
100
AcDbEntity
  8
0
100
AcDbBlockBegin
  2
-042-_U157
 70
     0
 10
0.0
 20
0.0
 30
0.0
  3
-042-_U157
  1

  0
TEXT
  5
182
330
180
100
AcDbEntity
  8
_0-1_Ｓ
 62
     7
100
AcDbText
 10
9492.600581015604
 20
-7178.798571276954
 30
0.0
 40
5.0
  1
40
100
AcDbText
  0
ENDBLK
  5
183
330
180
100
AcDbEntity
  8
0
100
AcDbBlockEnd
  0
BLOCK
  5
185
330
184
100
AcDbEntity
  8
0
100
AcDbBlockBegin
  2
-043-_D109
 70
     0
 10
0.0
 20
0.0
 30
0.0
  3
-043-_D109
  1

  0
LINE
  5
186
330
184
100
AcDbEntity
  8
_0-1_Ｓ
  6
Continuous
 62
     7
100
AcDbLine
 10
9476.350581015607
 20
-7211.082415025606
 30
0.0
 11
9476.350581015607
 21
-7179.798571276953
 31
0.0
  0
LINE
  5
187
330
184
100
AcDbEntity
  8
_0-1_Ｓ
  6
Continuous
 62
     7
100
AcDbLine
 10
9516.350581015602
 20
-7211.082415025606
 30
0.0
 11
9516.350581015602
 21
-7179.798571276953
 31
0.0
  0
LINE
  5
188
330
184
100
AcDbEntity
  8
_0-1_Ｓ
  6
Continuous
 62
     7
100
AcDbLine
 10
9478.350581015607
 20
-7180.798571276952
 30
0.0
 11
9514.350581015603
 21
-7180.798571276952
 31
0.0
  0
INSERT
  5
189
330
184
100
AcDbEntity
  8
_0-1_Ｓ
100
AcDbBlockReference
  2
-001-_DOTBLANK
 10
9476.350581015607
 20
-7180.798571276952
 30
0.0
 41
2.0
 42
2.0
 50
180.0
  0
INSERT
  5
18A
330
184
100
AcDbEntity
  8
_0-1_Ｓ
100
AcDbBlockReference
  2
-001-_DOTBLANK
 10
9516.350581015602
 20
-7180.798571276952
 30
0.0
 41
2.0
 42
2.0
  0
INSERT
  5
18B
330
184
100
AcDbEntity
  8
_0-1_Ｓ
100
AcDbBlockReference
  2
-042-_U157
 10
0.0
 20
0.0
 30
0.0
  0
POINT
  5
18C
330
184
100
AcDbEntity
  8
_0-4_DEFPOINTS
 62
     7
100
AcDbPoint
 10
9476.350581015607
 20
-7221.082415025605
 30
0.0
  0
POINT
  5
18D
330
184
100
AcDbEntity
  8
_0-4_DEFPOINTS
 62
     7
100
AcDbPoint
 10
9516.350581015602
 20
-7221.082415025605
 30
0.0
  0
POINT
  5
18E
330
184
100
AcDbEntity
  8
_0-4_DEFPOINTS
 62
     7
100
AcDbPoint
 10
9516.350581015602
 20
-7180.798571276952
 30
0.0
  0
ENDBLK
  5
18F
330
184
100
AcDbEntity
  8
0
100
AcDbBlockEnd
  0
BLOCK
  5
191
330
190
100
AcDbEntity
  8
0
100
AcDbBlockBegin
  2
-044-_U155
 70
     0
 10
0.0
 20
0.0
 30
0.0
  3
-044-_U155
  1

  0
TEXT
  5
192
330
190
100
AcDbEntity
  8
_0-1_Ｓ
 62
     7
100
AcDbText
 10
9191.01757387572
 20
-7267.301203824614
 30
0.0
 40
5.0
  1
13
100
AcDbText
  0
ENDBLK
  5
193
330
190
100
AcDbEntity
  8
0
100
AcDbBlockEnd
  0
BLOCK
  5
195
330
194
100
AcDbEntity
  8
0
100
AcDbBlockBegin
  2
-045-_D110
 70
     0
 10
0.0
 20
0.0
 30
0.0
  3
-045-_D110
  1

  0
LINE
  5
196
330
194
100
AcDbEntity
  8
_0-1_Ｓ
  6
Continuous
 62
     7
100
AcDbLine
 10
9187.850907209051
 20
-7223.611539039676
 30
0.0
 11
9187.850907209051
 21
-7270.301203824614
 31
0.0
  0
LINE
  5
197
330
194
100
AcDbEntity
  8
_0-1_Ｓ
  6
Continuous
 62
     7
100
AcDbLine
 10
9200.850907209051
 20
-7239.111539039678
 30
0.0
 11
9200.850907209051
 21
-7270.301203824614
 31
0.0
  0
LINE
  5
198
330
194
100
AcDbEntity
  8
_0-1_Ｓ
  6
Continuous
 62
     7
100
AcDbLine
 10
9189.850907209054
 20
-7269.301203824614
 30
0.0
 11
9198.850907209051
 21
-7269.301203824614
 31
0.0
  0
INSERT
  5
199
330
194
100
AcDbEntity
  8
_0-1_Ｓ
100
AcDbBlockReference
  2
-001-_DOTBLANK
 10
9187.850907209051
 20
-7269.301203824614
 30
0.0
 41
2.0
 42
2.0
 50
180.0
  0
INSERT
  5
19A
330
194
100
AcDbEntity
  8
_0-1_Ｓ
100
AcDbBlockReference
  2
-001-_DOTBLANK
 10
9200.850907209051
 20
-7269.301203824614
 30
0.0
 41
2.0
 42
2.0
  0
INSERT
  5
19B
330
194
100
AcDbEntity
  8
_0-1_Ｓ
100
AcDbBlockReference
  2
-044-_U155
 10
0.0
 20
0.0
 30
0.0
  0
POINT
  5
19C
330
194
100
AcDbEntity
  8
_0-4_DEFPOINTS
 62
     7
100
AcDbPoint
 10
9187.850907209051
 20
-7213.611539039678
 30
0.0
  0
POINT
  5
19D
330
194
100
AcDbEntity
  8
_0-4_DEFPOINTS
 62
     7
100
AcDbPoint
 10
9200.850907209051
 20
-7229.111539039678
 30
0.0
  0
POINT
  5
19E
330
194
100
AcDbEntity
  8
_0-4_DEFPOINTS
 62
     7
100
AcDbPoint
 10
9200.850907209051
 20
-7269.301203824614
 30
0.0
  0
ENDBLK
  5
19F
330
194
100
AcDbEntity
  8
0
100
AcDbBlockEnd
  0
BLOCK
  5
1A1
330
1A0
100
AcDbEntity
  8
0
100
AcDbBlockBegin
  2
-046-_U156
 70
     0
 10
0.0
 20
0.0
 30
0.0
  3
-046-_U156
  1

  0
TEXT
  5
1A2
330
1A0
100
AcDbEntity
  8
_0-1_Ｓ
 62
     7
100
AcDbText
 10
9197.684240542384
 20
-7283.56395041981
 30
0.0
 40
5.0
  1
28
100
AcDbText
  0
ENDBLK
  5
1A3
330
1A0
100
AcDbEntity
  8
0
100
AcDbBlockEnd
  0
BLOCK
  5
1A5
330
1A4
100
AcDbEntity
  8
0
100
AcDbBlockBegin
  2
-047-_D111
 70
     0
 10
0.0
 20
0.0
 30
0.0
  3
-047-_D111
  1

  0
LINE
  5
1A6
330
1A4
100
AcDbEntity
  8
_0-1_Ｓ
  6
Continuous
 62
     7
100
AcDbLine
 10
9187.850907209051
 20
-7255.374285634876
 30
0.0
 11
9187.850907209051
 21
-7286.56395041981
 31
0.0
  0
LINE
  5
1A7
330
1A4
100
AcDbEntity
  8
_0-1_Ｓ
  6
Continuous
 62
     7
100
AcDbLine
 10
9215.850907209055
 20
-7255.374285634876
 30
0.0
 11
9215.850907209055
 21
-7286.56395041981
 31
0.0
  0
LINE
  5
1A8
330
1A4
100
AcDbEntity
  8
_0-1_Ｓ
  6
Continuous
 62
     7
100
AcDbLine
 10
9189.850907209054
 20
-7285.56395041981
 30
0.0
 11
9213.850907209055
 21
-7285.56395041981
 31
0.0
  0
INSERT
  5
1A9
330
1A4
100
AcDbEntity
  8
_0-1_Ｓ
100
AcDbBlockReference
  2
-001-_DOTBLANK
 10
9187.850907209051
 20
-7285.56395041981
 30
0.0
 41
2.0
 42
2.0
 50
180.0
  0
INSERT
  5
1AA
330
1A4
100
AcDbEntity
  8
_0-1_Ｓ
100
AcDbBlockReference
  2
-001-_DOTBLANK
 10
9215.850907209055
 20
-7285.56395041981
 30
0.0
 41
2.0
 42
2.0
  0
INSERT
  5
1AB
330
1A4
100
AcDbEntity
  8
_0-1_Ｓ
100
AcDbBlockReference
  2
-046-_U156
 10
0.0
 20
0.0
 30
0.0
  0
POINT
  5
1AC
330
1A4
100
AcDbEntity
  8
_0-4_DEFPOINTS
 62
     7
100
AcDbPoint
 10
9187.850907209051
 20
-7245.374285634875
 30
0.0
  0
POINT
  5
1AD
330
1A4
100
AcDbEntity
  8
_0-4_DEFPOINTS
 62
     7
100
AcDbPoint
 10
9215.850907209055
 20
-7245.374285634875
 30
0.0
  0
POINT
  5
1AE
330
1A4
100
AcDbEntity
  8
_0-4_DEFPOINTS
 62
     7
100
AcDbPoint
 10
9215.850907209055
 20
-7285.56395041981
 30
0.0
  0
ENDBLK
  5
1AF
330
1A4
100
AcDbEntity
  8
0
100
AcDbBlockEnd
  0
BLOCK
  5
1B1
330
1B0
100
AcDbEntity
  8
0
100
AcDbBlockBegin
  2
-048-_U162
 70
     0
 10
0.0
 20
0.0
 30
0.0
  3
-048-_U162
  1

  0
TEXT
  5
1B2
330
1B0
100
AcDbEntity
  8
_0-1_Ｓ
 62
     7
100
AcDbText
 10
9280.350650585937
 20
-7238.444872373012
 30
0.0
 40
5.0
  1
4
 50
90.0
100
AcDbText
  0
ENDBLK
  5
1B3
330
1B0
100
AcDbEntity
  8
0
100
AcDbBlockEnd
  0
BLOCK
  5
1B5
330
1B4
100
AcDbEntity
  8
0
100
AcDbBlockBegin
  2
-049-_D112
 70
     0
 10
0.0
 20
0.0
 30
0.0
  3
-049-_D112
  1

  0
LINE
  5
1B6
330
1B4
100
AcDbEntity
  8
_0-1_Ｓ
  6
Continuous
 62
     7
100
AcDbLine
 10
9225.850907209052
 20
-7225.111539039676
 30
0.0
 11
9283.350650585932
 21
-7225.111539039676
 31
0.0
  0
LINE
  5
1B7
330
1B4
100
AcDbEntity
  8
_0-1_Ｓ
  6
Continuous
 62
     7
100
AcDbLine
 10
9225.850907209055
 20
-7229.111539039678
 30
0.0
 11
9283.350650585932
 21
-7229.111539039678
 31
0.0
  0
LINE
  5
1B8
330
1B4
100
AcDbEntity
  8
_0-1_Ｓ
  6
Continuous
 62
     7
100
AcDbLine
 10
9282.350650585931
 20
-7223.111539039677
 30
0.0
 11
9282.350650585931
 21
-7221.111539039677
 31
0.0
  0
LINE
  5
1B9
330
1B4
100
AcDbEntity
  8
_0-1_Ｓ
  6
Continuous
 62
     7
100
AcDbLine
 10
9282.350650585931
 20
-7231.111539039678
 30
0.0
 11
9282.350650585931
 21
-7240.444872373011
 31
0.0
  0
INSERT
  5
1BA
330
1B4
100
AcDbEntity
  8
_0-1_Ｓ
100
AcDbBlockReference
  2
-001-_DOTBLANK
 10
9282.350650585931
 20
-7225.111539039676
 30
0.0
 41
2.0
 42
2.0
 50
270.0
  0
INSERT
  5
1BB
330
1B4
100
AcDbEntity
  8
_0-1_Ｓ
100
AcDbBlockReference
  2
-001-_DOTBLANK
 10
9282.350650585931
 20
-7229.111539039678
 30
0.0
 41
2.0
 42
2.0
 50
90.0
  0
INSERT
  5
1BC
330
1B4
100
AcDbEntity
  8
_0-1_Ｓ
100
AcDbBlockReference
  2
-048-_U162
 10
0.0
 20
0.0
 30
0.0
  0
POINT
  5
1BD
330
1B4
100
AcDbEntity
  8
_0-4_DEFPOINTS
 62
     7
100
AcDbPoint
 10
9215.85090720905
 20
-7225.111539039676
 30
0.0
  0
POINT
  5
1BE
330
1B4
100
AcDbEntity
  8
_0-4_DEFPOINTS
 62
     7
100
AcDbPoint
 10
9215.850907209055
 20
-7229.111539039678
 30
0.0
  0
POINT
  5
1BF
330
1B4
100
AcDbEntity
  8
_0-4_DEFPOINTS
 62
     7
100
AcDbPoint
 10
9282.350650585931
 20
-7229.111539039678
 30
0.0
  0
ENDBLK
  5
1C0
330
1B4
100
AcDbEntity
  8
0
100
AcDbBlockEnd
  0
BLOCK
  5
1C2
330
1C1
100
AcDbEntity
  8
0
100
AcDbBlockBegin
  2
-050-_U151
 70
     0
 10
0.0
 20
0.0
 30
0.0
  3
-050-_U151
  1

  0
TEXT
  5
1C3
330
1C1
100
AcDbEntity
  8
_0-1_Ｓ
 62
     7
100
AcDbText
 10
9280.350650585937
 20
-7209.611539039676
 30
0.0
 40
5.0
  1
11.5（内々）
 50
90.0
100
AcDbText
  0
ENDBLK
  5
1C4
330
1C1
100
AcDbEntity
  8
0
100
AcDbBlockEnd
  0
BLOCK
  5
1C6
330
1C5
100
AcDbEntity
  8
0
100
AcDbBlockBegin
  2
-051-_D113
 70
     0
 10
0.0
 20
0.0
 30
0.0
  3
-051-_D113
  1

  0
LINE
  5
1C7
330
1C5
100
AcDbEntity
  8
_0-1_Ｓ
  6
Continuous
 62
     7
100
AcDbLine
 10
9236.850907209051
 20
-7213.611539039678
 30
0.0
 11
9283.350650585932
 21
-7213.611539039678
 31
0.0
  0
LINE
  5
1C8
330
1C5
100
AcDbEntity
  8
_0-1_Ｓ
  6
Continuous
 62
     7
100
AcDbLine
 10
9225.850907209055
 20
-7225.111539039676
 30
0.0
 11
9283.350650585932
 21
-7225.111539039676
 31
0.0
  0
LINE
  5
1C9
330
1C5
100
AcDbEntity
  8
_0-1_Ｓ
  6
Continuous
 62
     7
100
AcDbLine
 10
9282.350650585931
 20
-7223.111539039677
 30
0.0
 11
9282.350650585931
 21
-7215.611539039676
 31
0.0
  0
LINE
  5
1CA
330
1C5
100
AcDbEntity
  8
_0-1_Ｓ
  6
Continuous
 62
     7
100
AcDbLine
 10
9282.350650585931
 20
-7213.611539039678
 30
0.0
 11
9282.350650585931
 21
-7174.278205706345
 31
0.0
  0
INSERT
  5
1CB
330
1C5
100
AcDbEntity
  8
_0-1_Ｓ
100
AcDbBlockReference
  2
-001-_DOTBLANK
 10
9282.350650585931
 20
-7225.111539039676
 30
0.0
 41
2.0
 42
2.0
 50
270.0
  0
INSERT
  5
1CC
330
1C5
100
AcDbEntity
  8
_0-1_Ｓ
100
AcDbBlockReference
  2
-001-_DOTBLANK
 10
9282.350650585931
 20
-7213.611539039678
 30
0.0
 41
2.0
 42
2.0
 50
90.0
  0
INSERT
  5
1CD
330
1C5
100
AcDbEntity
  8
_0-1_Ｓ
100
AcDbBlockReference
  2
-050-_U151
 10
0.0
 20
0.0
 30
0.0
  0
POINT
  5
1CE
330
1C5
100
AcDbEntity
  8
_0-4_DEFPOINTS
 62
     7
100
AcDbPoint
 10
9226.850907209051
 20
-7213.611539039678
 30
0.0
  0
POINT
  5
1CF
330
1C5
100
AcDbEntity
  8
_0-4_DEFPOINTS
 62
     7
100
AcDbPoint
 10
9215.850907209055
 20
-7225.111539039676
 30
0.0
  0
POINT
  5
1D0
330
1C5
100
AcDbEntity
  8
_0-4_DEFPOINTS
 62
     7
100
AcDbPoint
 10
9282.350650585931
 20
-7225.111539039676
 30
0.0
  0
ENDBLK
  5
1D1
330
1C5
100
AcDbEntity
  8
0
100
AcDbBlockEnd
  0
BLOCK
  5
1D3
330
1D2
100
AcDbEntity
  8
0
100
AcDbBlockBegin
  2
-052-_U159
 70
     0
 10
0.0
 20
0.0
 30
0.0
  3
-052-_U159
  1

  0
TEXT
  5
1D4
330
1D2
100
AcDbEntity
  8
_0-1_Ｓ
 62
     7
100
AcDbText
 10
9419.24913949318
 20
-7218.08241502561
 30
0.0
 40
5.0
  1
11.5（内々）
 50
90.0
100
AcDbText
  0
ENDBLK
  5
1D5
330
1D2
100
AcDbEntity
  8
0
100
AcDbBlockEnd
  0
BLOCK
  5
1D7
330
1D6
100
AcDbEntity
  8
0
100
AcDbBlockBegin
  2
-053-_D114
 70
     0
 10
0.0
 20
0.0
 30
0.0
  3
-053-_D114
  1

  0
LINE
  5
1D8
330
1D6
100
AcDbEntity
  8
_0-1_Ｓ
  6
Continuous
 62
     7
100
AcDbLine
 10
9476.350581015607
 20
-7233.58241502561
 30
0.0
 11
9420.249139493177
 21
-7233.58241502561
 31
0.0
  0
LINE
  5
1D9
330
1D6
100
AcDbEntity
  8
_0-1_Ｓ
  6
Continuous
 62
     7
100
AcDbLine
 10
9466.350581015609
 20
-7222.08241502561
 30
0.0
 11
9420.249139493177
 21
-7222.08241502561
 31
0.0
  0
LINE
  5
1DA
330
1D6
100
AcDbEntity
  8
_0-1_Ｓ
  6
Continuous
 62
     7
100
AcDbLine
 10
9421.249139493177
 20
-7231.58241502561
 30
0.0
 11
9421.249139493177
 21
-7224.08241502561
 31
0.0
  0
LINE
  5
1DB
330
1D6
100
AcDbEntity
  8
_0-1_Ｓ
  6
Continuous
 62
     7
100
AcDbLine
 10
9421.249139493177
 20
-7222.08241502561
 30
0.0
 11
9421.249139493177
 21
-7182.749081692278
 31
0.0
  0
INSERT
  5
1DC
330
1D6
100
AcDbEntity
  8
_0-1_Ｓ
100
AcDbBlockReference
  2
-001-_DOTBLANK
 10
9421.249139493177
 20
-7233.58241502561
 30
0.0
 41
2.0
 42
2.0
 50
270.0
  0
INSERT
  5
1DD
330
1D6
100
AcDbEntity
  8
_0-1_Ｓ
100
AcDbBlockReference
  2
-001-_DOTBLANK
 10
9421.249139493177
 20
-7222.08241502561
 30
0.0
 41
2.0
 42
2.0
 50
90.0
  0
INSERT
  5
1DE
330
1D6
100
AcDbEntity
  8
_0-1_Ｓ
100
AcDbBlockReference
  2
-052-_U159
 10
0.0
 20
0.0
 30
0.0
  0
POINT
  5
1DF
330
1D6
100
AcDbEntity
  8
_0-4_DEFPOINTS
 62
     7
100
AcDbPoint
 10
9486.350581015605
 20
-7233.58241502561
 30
0.0
  0
POINT
  5
1E0
330
1D6
100
AcDbEntity
  8
_0-4_DEFPOINTS
 62
     7
100
AcDbPoint
 10
9476.350581015607
 20
-7222.08241502561
 30
0.0
  0
POINT
  5
1E1
330
1D6
100
AcDbEntity
  8
_0-4_DEFPOINTS
 62
     7
100
AcDbPoint
 10
9421.249139493177
 20
-7222.08241502561
 30
0.0
  0
ENDBLK
  5
1E2
330
1D6
100
AcDbEntity
  8
0
100
AcDbBlockEnd
  0
BLOCK
  5
1E4
330
1E3
100
AcDbEntity
  8
0
100
AcDbBlockBegin
  2
-054-_U161
 70
     0
 10
0.0
 20
0.0
 30
0.0
  3
-054-_U161
  1

  0
TEXT
  5
1E5
330
1E3
100
AcDbEntity
  8
_0-1_Ｓ
 62
     7
100
AcDbText
 10
9548.779545062044
 20
-7252.915748358939
 30
0.0
 40
5.0
  1
14.5
 50
90.0
100
AcDbText
  0
ENDBLK
  5
1E6
330
1E3
100
AcDbEntity
  8
0
100
AcDbBlockEnd
  0
BLOCK
  5
1E8
330
1E7
100
AcDbEntity
  8
0
100
AcDbBlockBegin
  2
-055-_D115
 70
     0
 10
0.0
 20
0.0
 30
0.0
  3
-055-_D115
  1

  0
LINE
  5
1E9
330
1E7
100
AcDbEntity
  8
_0-1_Ｓ
  6
Continuous
 62
     7
100
AcDbLine
 10
9526.350581015602
 20
-7221.082415025605
 30
0.0
 11
9551.779545062045
 21
-7221.082415025605
 31
0.0
  0
LINE
  5
1EA
330
1E7
100
AcDbEntity
  8
_0-1_Ｓ
  6
Continuous
 62
     7
100
AcDbLine
 10
9516.350581015608
 20
-7235.582415025605
 30
0.0
 11
9551.779545062045
 21
-7235.582415025605
 31
0.0
  0
LINE
  5
1EB
330
1E7
100
AcDbEntity
  8
_0-1_Ｓ
  6
Continuous
 62
     7
100
AcDbLine
 10
9550.779545062043
 20
-7223.082415025605
 30
0.0
 11
9550.779545062043
 21
-7233.582415025606
 31
0.0
  0
LINE
  5
1EC
330
1E7
100
AcDbEntity
  8
_0-1_Ｓ
  6
Continuous
 62
     7
100
AcDbLine
 10
9550.779545062043
 20
-7235.582415025605
 30
0.0
 11
9550.779545062043
 21
-7254.915748358938
 31
0.0
  0
INSERT
  5
1ED
330
1E7
100
AcDbEntity
  8
_0-1_Ｓ
100
AcDbBlockReference
  2
-001-_DOTBLANK
 10
9550.779545062043
 20
-7221.082415025605
 30
0.0
 41
2.0
 42
2.0
 50
90.0
  0
INSERT
  5
1EE
330
1E7
100
AcDbEntity
  8
_0-1_Ｓ
100
AcDbBlockReference
  2
-001-_DOTBLANK
 10
9550.779545062043
 20
-7235.582415025605
 30
0.0
 41
2.0
 42
2.0
 50
270.0
  0
INSERT
  5
1EF
330
1E7
100
AcDbEntity
  8
_0-1_Ｓ
100
AcDbBlockReference
  2
-054-_U161
 10
0.0
 20
0.0
 30
0.0
  0
POINT
  5
1F0
330
1E7
100
AcDbEntity
  8
_0-4_DEFPOINTS
 62
     7
100
AcDbPoint
 10
9516.350581015602
 20
-7221.082415025605
 30
0.0
  0
POINT
  5
1F1
330
1E7
100
AcDbEntity
  8
_0-4_DEFPOINTS
 62
     7
100
AcDbPoint
 10
9506.350581015608
 20
-7235.582415025605
 30
0.0
  0
POINT
  5
1F2
330
1E7
100
AcDbEntity
  8
_0-4_DEFPOINTS
 62
     7
100
AcDbPoint
 10
9550.779545062043
 20
-7235.582415025605
 30
0.0
  0
ENDBLK
  5
1F3
330
1E7
100
AcDbEntity
  8
0
100
AcDbBlockEnd
  0
BLOCK
  5
1F5
330
1F4
100
AcDbEntity
  8
0
100
AcDbBlockBegin
  2
-056-_U169
 70
     0
 10
0.0
 20
0.0
 30
0.0
  3
-056-_U169
  1

  0
TEXT
  5
1F6
330
1F4
100
AcDbEntity
  8
_0-1_Ｓ
 62
     7
100
AcDbText
 10
9429.22933167382
 20
-7095.532719339843
 30
0.0
 40
5.0
  1
11
 50
30.0000000056594
100
AcDbText
  0
ENDBLK
  5
1F7
330
1F4
100
AcDbEntity
  8
0
100
AcDbBlockEnd
  0
BLOCK
  5
1F9
330
1F8
100
AcDbEntity
  8
0
100
AcDbBlockBegin
  2
-057-_D117
 70
     0
 10
0.0
 20
0.0
 30
0.0
  3
-057-_D117
  1

  0
LINE
  5
1FA
330
1F8
100
AcDbEntity
  8
_0-1_Ｓ
  6
Continuous
 62
     7
100
AcDbLine
 10
9430.516497946202
 20
-7081.762156723288
 30
0.0
 11
9437.657534904102
 21
-7094.130795550279
 31
0.0
  0
LINE
  5
1FB
330
1F8
100
AcDbEntity
  8
_0-1_Ｓ
  6
Continuous
 62
     7
100
AcDbLine
 10
9410.790218503317
 20
-7069.595238488608
 30
0.0
 11
9428.131255462728
 21
-7099.630795551385
 31
0.0
  0
LINE
  5
1FC
330
1F8
100
AcDbEntity
  8
_0-1_Ｓ
  6
Continuous
 62
     7
100
AcDbLine
 10
9435.425484096548
 20
-7094.264770146716
 30
0.0
 11
9429.363306270111
 21
-7097.764770147482
 31
0.0
  0
INSERT
  5
1FD
330
1F8
100
AcDbEntity
  8
_0-1_Ｓ
100
AcDbBlockReference
  2
-001-_DOTBLANK
 10
9437.157534904015
 20
-7093.264770146546
 30
0.0
 41
2.0
 42
2.0
 50
30.00000000566049
  0
INSERT
  5
1FE
330
1F8
100
AcDbEntity
  8
_0-1_Ｓ
100
AcDbBlockReference
  2
-001-_DOTBLANK
 10
9427.631255462644
 20
-7098.764770147653
 30
0.0
 41
2.0
 42
2.0
 50
210.0000000056605
  0
INSERT
  5
1FF
330
1F8
100
AcDbEntity
  8
_0-1_Ｓ
100
AcDbBlockReference
  2
-056-_U169
 10
0.0
 20
0.0
 30
0.0
  0
POINT
  5
200
330
1F8
100
AcDbEntity
  8
_0-4_DEFPOINTS
 62
     7
100
AcDbPoint
 10
9425.516497945348
 20
-7073.101902685937
 30
0.0
  0
POINT
  5
201
330
1F8
100
AcDbEntity
  8
_0-4_DEFPOINTS
 62
     7
100
AcDbPoint
 10
9405.79021850246
 20
-7060.934984451257
 30
0.0
  0
POINT
  5
202
330
1F8
100
AcDbEntity
  8
_0-4_DEFPOINTS
 62
     7
100
AcDbPoint
 10
9427.631255462644
 20
-7098.764770147653
 30
0.0
  0
ENDBLK
  5
203
330
1F8
100
AcDbEntity
  8
0
100
AcDbBlockEnd
  0
BLOCK
  5
205
330
204
100
AcDbEntity
  8
0
100
AcDbBlockBegin
  2
-058-_U170
 70
     0
 10
0.0
 20
0.0
 30
0.0
  3
-058-_U170
  1

  0
TEXT
  5
206
330
204
100
AcDbEntity
  8
_0-1_Ｓ
 62
     7
100
AcDbText
 10
9434.849560335342
 20
-7046.062821506501
 30
0.0
 40
5.0
  1
30
 50
300.0000000037539
100
AcDbText
  0
ENDBLK
  5
207
330
204
100
AcDbEntity
  8
0
100
AcDbBlockEnd
  0
BLOCK
  5
209
330
208
100
AcDbEntity
  8
0
100
AcDbBlockBegin
  2
-059-_D118
 70
     0
 10
0.0
 20
0.0
 30
0.0
  3
-059-_D118
  1

  0
LINE
  5
20A
330
208
100
AcDbEntity
  8
_0-1_Ｓ
  6
Continuous
 62
     7
100
AcDbLine
 10
9434.523162144385
 20
-7067.901902685401
 30
0.0
 11
9443.358534932666
 21
-7062.800797826928
 31
0.0
  0
LINE
  5
20B
330
208
100
AcDbEntity
  8
_0-1_Ｓ
  6
Continuous
 62
     7
100
AcDbLine
 10
9419.176751980533
 20
-7042.121140573181
 30
0.0
 11
9428.358534930938
 21
-7036.820035714324
 31
0.0
  0
LINE
  5
20C
330
208
100
AcDbEntity
  8
_0-1_Ｓ
  6
Continuous
 62
     7
100
AcDbLine
 10
9441.492509528799
 20
-7061.568747019483
 30
0.0
 11
9428.4925095273
 21
-7039.052086521883
 31
0.0
  0
INSERT
  5
20D
330
208
100
AcDbEntity
  8
_0-1_Ｓ
100
AcDbBlockReference
  2
-001-_DOTBLANK
 10
9442.492509528912
 20
-7063.300797826983
 30
0.0
 41
2.0
 42
2.0
 50
300.000000003746
  0
INSERT
  5
20E
330
208
100
AcDbEntity
  8
_0-1_Ｓ
100
AcDbBlockReference
  2
-001-_DOTBLANK
 10
9427.492509527187
 20
-7037.320035714381
 30
0.0
 41
2.0
 42
2.0
 50
120.0000000037459
  0
INSERT
  5
20F
330
208
100
AcDbEntity
  8
_0-1_Ｓ
100
AcDbBlockReference
  2
-058-_U170
 10
0.0
 20
0.0
 30
0.0
  0
POINT
  5
210
330
208
100
AcDbEntity
  8
_0-4_DEFPOINTS
 62
     7
100
AcDbPoint
 10
9425.86290810687
 20
-7072.901902685966
 30
0.0
  0
POINT
  5
211
330
208
100
AcDbEntity
  8
_0-4_DEFPOINTS
 62
     7
100
AcDbPoint
 10
9410.516497943016
 20
-7047.121140573747
 30
0.0
  0
POINT
  5
212
330
208
100
AcDbEntity
  8
_0-4_DEFPOINTS
 62
     7
100
AcDbPoint
 10
9427.492509527187
 20
-7037.320035714381
 30
0.0
  0
ENDBLK
  5
213
330
208
100
AcDbEntity
  8
0
100
AcDbBlockEnd
  0
BLOCK
  5
215
330
214
100
AcDbEntity
  8
0
100
AcDbBlockBegin
  2
-060-_U171
 70
     0
 10
0.0
 20
0.0
 30
0.0
  3
-060-_U171
  1

  0
TEXT
  5
216
330
214
100
AcDbEntity
  8
_0-1_Ｓ
 62
     7
100
AcDbText
 10
9372.000988017491
 20
-7060.824728262696
 30
0.0
 40
5.0
  1
30
100
AcDbText
  0
ENDBLK
  5
217
330
214
100
AcDbEntity
  8
0
100
AcDbBlockEnd
  0
BLOCK
  5
219
330
218
100
AcDbEntity
  8
0
100
AcDbBlockBegin
  2
-061-_D119
 70
     0
 10
0.0
 20
0.0
 30
0.0
  3
-061-_D119
  1

  0
LINE
  5
21A
330
218
100
AcDbEntity
  8
_0-1_Ｓ
  6
Continuous
 62
     7
100
AcDbLine
 10
9361.224193098307
 20
-7046.46665790332
 30
0.0
 11
9361.224193098307
 21
-7063.824728262696
 31
0.0
  0
LINE
  5
21B
330
218
100
AcDbEntity
  8
_0-1_Ｓ
  6
Continuous
 62
     7
100
AcDbLine
 10
9390.277782936676
 20
-7047.266657903321
 30
0.0
 11
9390.277782936676
 21
-7063.824728262696
 31
0.0
  0
LINE
  5
21C
330
218
100
AcDbEntity
  8
_0-1_Ｓ
  6
Continuous
 62
     7
100
AcDbLine
 10
9363.224193098307
 20
-7062.824728262696
 30
0.0
 11
9388.277782936677
 21
-7062.824728262696
 31
0.0
  0
INSERT
  5
21D
330
218
100
AcDbEntity
  8
_0-1_Ｓ
100
AcDbBlockReference
  2
-001-_DOTBLANK
 10
9361.224193098307
 20
-7062.824728262696
 30
0.0
 41
2.0
 42
2.0
 50
180.0
  0
INSERT
  5
21E
330
218
100
AcDbEntity
  8
_0-1_Ｓ
100
AcDbBlockReference
  2
-001-_DOTBLANK
 10
9390.277782936676
 20
-7062.824728262696
 30
0.0
 41
2.0
 42
2.0
  0
INSERT
  5
21F
330
218
100
AcDbEntity
  8
_0-1_Ｓ
100
AcDbBlockReference
  2
-060-_U171
 10
0.0
 20
0.0
 30
0.0
  0
POINT
  5
220
330
218
100
AcDbEntity
  8
_0-4_DEFPOINTS
 62
     7
100
AcDbPoint
 10
9361.224193098307
 20
-7036.46665790332
 30
0.0
  0
POINT
  5
221
330
218
100
AcDbEntity
  8
_0-4_DEFPOINTS
 62
     7
100
AcDbPoint
 10
9390.277782936676
 20
-7037.26665790332
 30
0.0
  0
POINT
  5
222
330
218
100
AcDbEntity
  8
_0-4_DEFPOINTS
 62
     7
100
AcDbPoint
 10
9390.277782936676
 20
-7062.824728262696
 30
0.0
  0
ENDBLK
  5
223
330
218
100
AcDbEntity
  8
0
100
AcDbBlockEnd
  0
BLOCK
  5
225
330
224
100
AcDbEntity
  8
0
100
AcDbBlockBegin
  2
-062-_U172
 70
     0
 10
0.0
 20
0.0
 30
0.0
  3
-062-_U172
  1

  0
TEXT
  5
226
330
224
100
AcDbEntity
  8
_0-1_Ｓ
 62
     7
100
AcDbText
 10
9356.740707776859
 20
-7069.435032327605
 30
0.0
 40
5.0
  1
30
 50
300.3943802001008
100
AcDbText
  0
ENDBLK
  5
227
330
224
100
AcDbEntity
  8
0
100
AcDbBlockEnd
  0
BLOCK
  5
229
330
228
100
AcDbEntity
  8
0
100
AcDbBlockBegin
  2
-063-_D120
 70
     0
 10
0.0
 20
0.0
 30
0.0
  3
-063-_D120
  1

  0
LINE
  5
22A
330
228
100
AcDbEntity
  8
_0-1_Ｓ
  6
Continuous
 62
     7
100
AcDbLine
 10
9396.871765190629
 20
-7067.087296403079
 30
0.0
 11
9363.401365872745
 21
-7086.719850371402
 31
0.0
  0
LINE
  5
22B
330
228
100
AcDbEntity
  8
_0-1_Ｓ
  6
Continuous
 62
     7
100
AcDbLine
 10
9382.169687927214
 20
-7042.022580034402
 30
0.0
 11
9348.699288609337
 21
-7061.655134002724
 31
0.0
  0
LINE
  5
22C
330
228
100
AcDbEntity
  8
_0-1_Ｓ
  6
Continuous
 62
     7
100
AcDbLine
 10
9363.252030845853
 20
-7084.488774610758
 30
0.0
 11
9350.573750233989
 21
-7062.874311437598
 31
0.0
  0
INSERT
  5
22D
330
228
100
AcDbEntity
  8
_0-1_Ｓ
100
AcDbBlockReference
  2
-001-_DOTBLANK
 10
9364.263929171627
 20
-7086.213901208518
 30
0.0
 41
2.0
 42
2.0
 50
300.3943802000932
  0
INSERT
  5
22E
330
228
100
AcDbEntity
  8
_0-1_Ｓ
100
AcDbBlockReference
  2
-001-_DOTBLANK
 10
9349.561851908214
 20
-7061.149184839838
 30
0.0
 41
2.0
 42
2.0
 50
120.3943802000932
  0
INSERT
  5
22F
330
228
100
AcDbEntity
  8
_0-1_Ｓ
100
AcDbBlockReference
  2
-062-_U172
 10
0.0
 20
0.0
 30
0.0
  0
POINT
  5
230
330
228
100
AcDbEntity
  8
_0-4_DEFPOINTS
 62
     7
100
AcDbPoint
 10
9405.497398179425
 20
-7062.027804774217
 30
0.0
  0
POINT
  5
231
330
228
100
AcDbEntity
  8
_0-4_DEFPOINTS
 62
     7
100
AcDbPoint
 10
9390.79532091601
 20
-7036.963088405538
 30
0.0
  0
POINT
  5
232
330
228
100
AcDbEntity
  8
_0-4_DEFPOINTS
 62
     7
100
AcDbPoint
 10
9349.561851908214
 20
-7061.149184839838
 30
0.0
  0
ENDBLK
  5
233
330
228
100
AcDbEntity
  8
0
100
AcDbBlockEnd
  0
BLOCK
  5
235
330
234
100
AcDbEntity
  8
0
100
AcDbBlockBegin
  2
-064-_U173
 70
     0
 10
0.0
 20
0.0
 30
0.0
  3
-064-_U173
  1

  0
TEXT
  5
236
330
234
100
AcDbEntity
  8
_0-1_Ｓ
 62
     7
100
AcDbText
 10
9316.34211918487
 20
-7032.666657903352
 30
0.0
 40
5.0
  1
11
 50
90.0
100
AcDbText
  0
ENDBLK
  5
237
330
234
100
AcDbEntity
  8
0
100
AcDbBlockEnd
  0
BLOCK
  5
239
330
238
100
AcDbEntity
  8
0
100
AcDbBlockBegin
  2
-065-_D121
 70
     0
 10
0.0
 20
0.0
 30
0.0
  3
-065-_D121
  1

  0
LINE
  5
23A
330
238
100
AcDbEntity
  8
_0-1_Ｓ
  6
Continuous
 62
     7
100
AcDbLine
 10
9331.624193098319
 20
-7024.666657903374
 30
0.0
 11
9317.342119184869
 21
-7024.666657903374
 31
0.0
  0
LINE
  5
23B
330
238
100
AcDbEntity
  8
_0-1_Ｓ
  6
Continuous
 62
     7
100
AcDbLine
 10
9352.024193098296
 20
-7035.66665790333
 30
0.0
 11
9317.342119184869
 21
-7035.66665790333
 31
0.0
  0
LINE
  5
23C
330
238
100
AcDbEntity
  8
_0-1_Ｓ
  6
Continuous
 62
     7
100
AcDbLine
 10
9318.342119184867
 20
-7026.666657903376
 30
0.0
 11
9318.342119184867
 21
-7033.666657903331
 31
0.0
  0
INSERT
  5
23D
330
238
100
AcDbEntity
  8
_0-1_Ｓ
100
AcDbBlockReference
  2
-001-_DOTBLANK
 10
9318.342119184867
 20
-7024.666657903374
 30
0.0
 41
2.0
 42
2.0
 50
90.0
  0
INSERT
  5
23E
330
238
100
AcDbEntity
  8
_0-1_Ｓ
100
AcDbBlockReference
  2
-001-_DOTBLANK
 10
9318.342119184867
 20
-7035.66665790333
 30
0.0
 41
2.0
 42
2.0
 50
270.0
  0
INSERT
  5
23F
330
238
100
AcDbEntity
  8
_0-1_Ｓ
100
AcDbBlockReference
  2
-064-_U173
 10
0.0
 20
0.0
 30
0.0
  0
POINT
  5
240
330
238
100
AcDbEntity
  8
_0-4_DEFPOINTS
 62
     7
100
AcDbPoint
 10
9341.62419309832
 20
-7024.666657903374
 30
0.0
  0
POINT
  5
241
330
238
100
AcDbEntity
  8
_0-4_DEFPOINTS
 62
     7
100
AcDbPoint
 10
9362.024193098296
 20
-7035.66665790333
 30
0.0
  0
POINT
  5
242
330
238
100
AcDbEntity
  8
_0-4_DEFPOINTS
 62
     7
100
AcDbPoint
 10
9318.342119184867
 20
-7035.66665790333
 30
0.0
  0
ENDBLK
  5
243
330
238
100
AcDbEntity
  8
0
100
AcDbBlockEnd
  0
BLOCK
  5
245
330
244
100
AcDbEntity
  8
0
100
AcDbBlockBegin
  2
-066-_U174
 70
     0
 10
0.0
 20
0.0
 30
0.0
  3
-066-_U174
  1

  0
TEXT
  5
246
330
244
100
AcDbEntity
  8
_0-1_Ｓ
 62
     7
100
AcDbText
 10
9352.874193098291
 20
-7003.064448186804
 30
0.0
 40
5.0
  1
30
100
AcDbText
  0
ENDBLK
  5
247
330
244
100
AcDbEntity
  8
0
100
AcDbBlockEnd
  0
BLOCK
  5
249
330
248
100
AcDbEntity
  8
0
100
AcDbBlockBegin
  2
-067-_D122
 70
     0
 10
0.0
 20
0.0
 30
0.0
  3
-067-_D122
  1

  0
LINE
  5
24A
330
248
100
AcDbEntity
  8
_0-1_Ｓ
  6
Continuous
 62
     7
100
AcDbLine
 10
9341.62419309826
 20
-7014.266657903366
 30
0.0
 11
9341.62419309826
 21
-7004.064448186804
 31
0.0
  0
LINE
  5
24B
330
248
100
AcDbEntity
  8
_0-1_Ｓ
  6
Continuous
 62
     7
100
AcDbLine
 10
9371.62419309832
 20
-7014.666657903315
 30
0.0
 11
9371.62419309832
 21
-7004.064448186804
 31
0.0
  0
LINE
  5
24C
330
248
100
AcDbEntity
  8
_0-1_Ｓ
  6
Continuous
 62
     7
100
AcDbLine
 10
9343.624193098261
 20
-7005.064448186804
 30
0.0
 11
9369.624193098319
 21
-7005.064448186804
 31
0.0
  0
INSERT
  5
24D
330
248
100
AcDbEntity
  8
_0-1_Ｓ
100
AcDbBlockReference
  2
-001-_DOTBLANK
 10
9341.62419309826
 20
-7005.064448186804
 30
0.0
 41
2.0
 42
2.0
 50
180.0
  0
INSERT
  5
24E
330
248
100
AcDbEntity
  8
_0-1_Ｓ
100
AcDbBlockReference
  2
-001-_DOTBLANK
 10
9371.62419309832
 20
-7005.064448186804
 30
0.0
 41
2.0
 42
2.0
  0
INSERT
  5
24F
330
248
100
AcDbEntity
  8
_0-1_Ｓ
100
AcDbBlockReference
  2
-066-_U174
 10
0.0
 20
0.0
 30
0.0
  0
POINT
  5
250
330
248
100
AcDbEntity
  8
_0-4_DEFPOINTS
 62
     7
100
AcDbPoint
 10
9341.62419309826
 20
-7024.266657903365
 30
0.0
  0
POINT
  5
251
330
248
100
AcDbEntity
  8
_0-4_DEFPOINTS
 62
     7
100
AcDbPoint
 10
9371.62419309832
 20
-7024.666657903316
 30
0.0
  0
POINT
  5
252
330
248
100
AcDbEntity
  8
_0-4_DEFPOINTS
 62
     7
100
AcDbPoint
 10
9371.62419309832
 20
-7005.064448186804
 30
0.0
  0
ENDBLK
  5
253
330
248
100
AcDbEntity
  8
0
100
AcDbBlockEnd
  0
BLOCK
  5
255
330
254
100
AcDbEntity
  8
0
100
AcDbBlockBegin
  2
-068-_D123
 70
     0
 10
0.0
 20
0.0
 30
0.0
  3
-068-_D123
  1

  0
ARC
  5
256
330
254
100
AcDbEntity
  8
_0-1_Ｓ
  6
Continuous
 62
     7
100
AcDbCircle
 10
9390.277782936676
 20
-7037.26665790332
 30
0.0
 40
17.82971760093296
100
AcDbArc
 50
186.4303722794427
 51
293.5696277217549
  0
INSERT
  5
257
330
254
100
AcDbEntity
  8
_0-1_Ｓ
100
AcDbBlockReference
  2
-001-_DOTBLANK
 10
9372.448065335746
 20
-7037.26665790333
 30
0.0
 41
2.0
 42
2.0
 50
93.21518613973772
  0
INSERT
  5
258
330
254
100
AcDbEntity
  8
_0-1_Ｓ
100
AcDbBlockReference
  2
-001-_DOTBLANK
 10
9399.192641737458
 20
-7052.707646287851
 30
0.0
 41
2.0
 42
2.0
 50
26.78481386145991
  0
TEXT
  5
259
330
254
100
AcDbEntity
  8
_0-1_Ｓ
 62
     7
100
AcDbText
 10
9373.610000000001
 20
-7057.66
 30
0.0
 40
5.0
  1
x
100
AcDbText
  0
POINT
  5
25A
330
254
100
AcDbEntity
  8
_0-4_DEFPOINTS
 62
     7
100
AcDbPoint
 10
9376.619426846184
 20
-7048.727379461509
 30
0.0
  0
POINT
  5
25B
330
254
100
AcDbEntity
  8
_0-4_DEFPOINTS
 62
     7
100
AcDbPoint
 10
9390.277782936662
 20
-7037.26665790332
 30
0.0
  0
POINT
  5
25C
330
254
100
AcDbEntity
  8
_0-4_DEFPOINTS
 62
     7
100
AcDbPoint
 10
9390.277782936676
 20
-7037.26665790332
 30
0.0
  0
POINT
  5
25D
330
254
100
AcDbEntity
  8
_0-4_DEFPOINTS
 62
     7
100
AcDbPoint
 10
9404.404577856395
 20
-7061.734984451233
 30
0.0
  0
POINT
  5
25E
330
254
100
AcDbEntity
  8
_0-4_DEFPOINTS
 62
     7
100
AcDbPoint
 10
9362.024193098296
 20
-7037.266657903337
 30
0.0
  0
ENDBLK
  5
25F
330
254
100
AcDbEntity
  8
0
100
AcDbBlockEnd
  0
BLOCK
  5
261
330
260
100
AcDbEntity
  8
0
100
AcDbBlockBegin
  2
-069-_U163
 70
     0
 10
0.0
 20
0.0
 30
0.0
  3
-069-_U163
  1

  0
TEXT
  5
262
330
260
100
AcDbEntity
  8
_0-1_Ｓ
 62
     7
100
AcDbText
 10
8851.550334837687
 20
-7241.017512169162
 30
0.0
 40
5.0
  1
11
 50
90.0
100
AcDbText
  0
ENDBLK
  5
263
330
260
100
AcDbEntity
  8
0
100
AcDbBlockEnd
  0
BLOCK
  5
265
330
264
100
AcDbEntity
  8
0
100
AcDbBlockBegin
  2
-070-_D124
 70
     0
 10
0.0
 20
0.0
 30
0.0
  3
-070-_D124
  1

  0
LINE
  5
266
330
264
100
AcDbEntity
  8
_0-1_Ｓ
  6
Continuous
 62
     7
100
AcDbLine
 10
8866.832408751134
 20
-7233.011704623018
 30
0.0
 11
8852.550334837683
 21
-7233.011704623018
 31
0.0
  0
LINE
  5
267
330
264
100
AcDbEntity
  8
_0-1_Ｓ
  6
Continuous
 62
     7
100
AcDbLine
 10
8887.232408751115
 20
-7244.023319715303
 30
0.0
 11
8852.550334837683
 21
-7244.023319715303
 31
0.0
  0
LINE
  5
268
330
264
100
AcDbEntity
  8
_0-1_Ｓ
  6
Continuous
 62
     7
100
AcDbLine
 10
8853.550334837686
 20
-7235.011704623019
 30
0.0
 11
8853.550334837686
 21
-7242.0233197153
 31
0.0
  0
INSERT
  5
269
330
264
100
AcDbEntity
  8
_0-1_Ｓ
100
AcDbBlockReference
  2
-001-_DOTBLANK
 10
8853.550334837686
 20
-7233.011704623018
 30
0.0
 41
2.0
 42
2.0
 50
90.0
  0
INSERT
  5
26A
330
264
100
AcDbEntity
  8
_0-1_Ｓ
100
AcDbBlockReference
  2
-001-_DOTBLANK
 10
8853.550334837686
 20
-7244.023319715303
 30
0.0
 41
2.0
 42
2.0
 50
270.0
  0
INSERT
  5
26B
330
264
100
AcDbEntity
  8
_0-1_Ｓ
100
AcDbBlockReference
  2
-069-_U163
 10
0.0
 20
0.0
 30
0.0
  0
POINT
  5
26C
330
264
100
AcDbEntity
  8
_0-4_DEFPOINTS
 62
     7
100
AcDbPoint
 10
8876.83240875113
 20
-7233.011704623018
 30
0.0
  0
POINT
  5
26D
330
264
100
AcDbEntity
  8
_0-4_DEFPOINTS
 62
     7
100
AcDbPoint
 10
8897.232408751115
 20
-7244.023319715303
 30
0.0
  0
POINT
  5
26E
330
264
100
AcDbEntity
  8
_0-4_DEFPOINTS
 62
     7
100
AcDbPoint
 10
8853.550334837686
 20
-7244.023319715303
 30
0.0
  0
ENDBLK
  5
26F
330
264
100
AcDbEntity
  8
0
100
AcDbBlockEnd
  0
BLOCK
  5
271
330
270
100
AcDbEntity
  8
0
100
AcDbBlockBegin
  2
-071-_U164
 70
     0
 10
0.0
 20
0.0
 30
0.0
  3
-071-_U164
  1

  0
TEXT
  5
272
330
270
100
AcDbEntity
  8
_0-1_Ｓ
 62
     7
100
AcDbText
 10
8955.178710732543
 20
-7176.193448996686
 30
0.0
 40
5.0
  1
11
 50
329.9999999999446
100
AcDbText
  0
ENDBLK
  5
273
330
270
100
AcDbEntity
  8
0
100
AcDbBlockEnd
  0
BLOCK
  5
275
330
274
100
AcDbEntity
  8
0
100
AcDbBlockBegin
  2
-072-_D125
 70
     0
 10
0.0
 20
0.0
 30
0.0
  3
-072-_D125
  1

  0
LINE
  5
276
330
274
100
AcDbEntity
  8
_0-1_Ｓ
  6
Continuous
 62
     7
100
AcDbLine
 10
8944.939597564347
 20
-7187.92811322825
 30
0.0
 11
8952.080634521118
 21
-7175.559474400426
 31
0.0
  0
LINE
  5
277
330
274
100
AcDbEntity
  8
_0-1_Ｓ
  6
Continuous
 62
     7
100
AcDbLine
 10
8944.266045786561
 20
-7211.094739129203
 30
0.0
 11
8961.606913962885
 21
-7181.05947440052
 31
0.0
  0
LINE
  5
278
330
274
100
AcDbEntity
  8
_0-1_Ｓ
  6
Continuous
 62
     7
100
AcDbLine
 10
8953.312685328683
 20
-7177.425499804211
 30
0.0
 11
8959.374863155323
 21
-7180.925499804302
 31
0.0
  0
INSERT
  5
279
330
274
100
AcDbEntity
  8
_0-1_Ｓ
100
AcDbBlockReference
  2
-001-_DOTBLANK
 10
8951.580634521119
 20
-7176.42549980421
 30
0.0
 41
2.0
 42
2.0
 50
149.9999999999454
  0
INSERT
  5
27A
330
274
100
AcDbEntity
  8
_0-1_Ｓ
100
AcDbBlockReference
  2
-001-_DOTBLANK
 10
8961.106913962884
 20
-7181.925499804305
 30
0.0
 41
2.0
 42
2.0
 50
329.9999999999455
  0
INSERT
  5
27B
330
274
100
AcDbEntity
  8
_0-1_Ｓ
100
AcDbBlockReference
  2
-071-_U164
 10
0.0
 20
0.0
 30
0.0
  0
POINT
  5
27C
330
274
100
AcDbEntity
  8
_0-4_DEFPOINTS
 62
     7
100
AcDbPoint
 10
8939.93959756434
 20
-7196.588367266091
 30
0.0
  0
POINT
  5
27D
330
274
100
AcDbEntity
  8
_0-4_DEFPOINTS
 62
     7
100
AcDbPoint
 10
8939.266045786551
 20
-7219.754993167043
 30
0.0
  0
POINT
  5
27E
330
274
100
AcDbEntity
  8
_0-4_DEFPOINTS
 62
     7
100
AcDbPoint
 10
8961.106913962884
 20
-7181.925499804305
 30
0.0
  0
ENDBLK
  5
27F
330
274
100
AcDbEntity
  8
0
100
AcDbBlockEnd
  0
BLOCK
  5
281
330
280
100
AcDbEntity
  8
0
100
AcDbBlockBegin
  2
-073-_U165
 70
     0
 10
0.0
 20
0.0
 30
0.0
  3
-073-_U165
  1

  0
TEXT
  5
282
330
280
100
AcDbEntity
  8
_0-1_Ｓ
 62
     7
100
AcDbText
 10
8911.856535172073
 20
-7202.025238728778
 30
0.0
 40
5.0
  1
30
 50
59.99999999990184
100
AcDbText
  0
ENDBLK
  5
283
330
280
100
AcDbEntity
  8
0
100
AcDbBlockEnd
  0
BLOCK
  5
285
330
284
100
AcDbEntity
  8
0
100
AcDbBlockBegin
  2
-074-_D126
 70
     0
 10
0.0
 20
0.0
 30
0.0
  3
-074-_D126
  1

  0
LINE
  5
286
330
284
100
AcDbEntity
  8
_0-1_Ｓ
  6
Continuous
 62
     7
100
AcDbLine
 10
8930.93293336501
 20
-7191.388367266028
 30
0.0
 11
8922.097560575894
 21
-7186.28726240782
 31
0.0
  0
LINE
  5
287
330
284
100
AcDbEntity
  8
_0-1_Ｓ
  6
Continuous
 62
     7
100
AcDbLine
 10
8916.279343526611
 20
-7217.569129379654
 30
0.0
 11
8907.097560575831
 21
-7212.268024521357
 31
0.0
  0
LINE
  5
288
330
284
100
AcDbEntity
  8
_0-1_Ｓ
  6
Continuous
 62
     7
100
AcDbLine
 10
8921.963585979677
 20
-7188.519313215389
 30
0.0
 11
8908.963585979616
 21
-7211.035973713795
 31
0.0
  0
INSERT
  5
289
330
284
100
AcDbEntity
  8
_0-1_Ｓ
100
AcDbBlockReference
  2
-001-_DOTBLANK
 10
8922.963585979678
 20
-7186.787262407823
 30
0.0
 41
2.0
 42
2.0
 50
59.99999999989881
  0
INSERT
  5
28A
330
284
100
AcDbEntity
  8
_0-1_Ｓ
100
AcDbBlockReference
  2
-001-_DOTBLANK
 10
8907.963585979613
 20
-7212.768024521363
 30
0.0
 41
2.0
 42
2.0
 50
239.9999999998989
  0
INSERT
  5
28B
330
284
100
AcDbEntity
  8
_0-1_Ｓ
100
AcDbBlockReference
  2
-073-_U165
 10
0.0
 20
0.0
 30
0.0
  0
POINT
  5
28C
330
284
100
AcDbEntity
  8
_0-4_DEFPOINTS
 62
     7
100
AcDbPoint
 10
8939.593187402845
 20
-7196.388367266043
 30
0.0
  0
POINT
  5
28D
330
284
100
AcDbEntity
  8
_0-4_DEFPOINTS
 62
     7
100
AcDbPoint
 10
8924.939597564444
 20
-7222.569129379671
 30
0.0
  0
POINT
  5
28E
330
284
100
AcDbEntity
  8
_0-4_DEFPOINTS
 62
     7
100
AcDbPoint
 10
8907.963585979613
 20
-7212.768024521363
 30
0.0
  0
ENDBLK
  5
28F
330
284
100
AcDbEntity
  8
0
100
AcDbBlockEnd
  0
BLOCK
  5
291
330
290
100
AcDbEntity
  8
0
100
AcDbBlockBegin
  2
-075-_U166
 70
     0
 10
0.0
 20
0.0
 30
0.0
  3
-075-_U166
  1

  0
TEXT
  5
292
330
290
100
AcDbEntity
  8
_0-1_Ｓ
 62
     7
100
AcDbText
 10
8888.082408751108
 20
-7203.420046780696
 30
0.0
 40
5.0
  1
30
100
AcDbText
  0
ENDBLK
  5
293
330
290
100
AcDbEntity
  8
0
100
AcDbBlockEnd
  0
BLOCK
  5
295
330
294
100
AcDbEntity
  8
0
100
AcDbBlockBegin
  2
-076-_D127
 70
     0
 10
0.0
 20
0.0
 30
0.0
  3
-076-_D127
  1

  0
LINE
  5
296
330
294
100
AcDbEntity
  8
_0-1_Ｓ
  6
Continuous
 62
     7
100
AcDbLine
 10
8876.832408751075
 20
-7222.611704623012
 30
0.0
 11
8876.832408751075
 21
-7204.420046780694
 31
0.0
  0
LINE
  5
297
330
294
100
AcDbEntity
  8
_0-1_Ｓ
  6
Continuous
 62
     7
100
AcDbLine
 10
8906.832408751133
 20
-7223.011704622959
 30
0.0
 11
8906.832408751133
 21
-7204.420046780694
 31
0.0
  0
LINE
  5
298
330
294
100
AcDbEntity
  8
_0-1_Ｓ
  6
Continuous
 62
     7
100
AcDbLine
 10
8878.832408751076
 20
-7205.420046780695
 30
0.0
 11
8904.832408751133
 21
-7205.420046780695
 31
0.0
  0
INSERT
  5
299
330
294
100
AcDbEntity
  8
_0-1_Ｓ
100
AcDbBlockReference
  2
-001-_DOTBLANK
 10
8876.832408751075
 20
-7205.420046780695
 30
0.0
 41
2.0
 42
2.0
 50
180.0
  0
INSERT
  5
29A
330
294
100
AcDbEntity
  8
_0-1_Ｓ
100
AcDbBlockReference
  2
-001-_DOTBLANK
 10
8906.832408751133
 20
-7205.420046780695
 30
0.0
 41
2.0
 42
2.0
  0
INSERT
  5
29B
330
294
100
AcDbEntity
  8
_0-1_Ｓ
100
AcDbBlockReference
  2
-075-_U166
 10
0.0
 20
0.0
 30
0.0
  0
POINT
  5
29C
330
294
100
AcDbEntity
  8
_0-4_DEFPOINTS
 62
     7
100
AcDbPoint
 10
8876.832408751075
 20
-7232.61170462301
 30
0.0
  0
POINT
  5
29D
330
294
100
AcDbEntity
  8
_0-4_DEFPOINTS
 62
     7
100
AcDbPoint
 10
8906.832408751133
 20
-7233.01170462296
 30
0.0
  0
POINT
  5
29E
330
294
100
AcDbEntity
  8
_0-4_DEFPOINTS
 62
     7
100
AcDbPoint
 10
8906.832408751133
 20
-7205.420046780695
 30
0.0
  0
ENDBLK
  5
29F
330
294
100
AcDbEntity
  8
0
100
AcDbBlockEnd
  0
BLOCK
  5
2A1
330
2A0
100
AcDbEntity
  8
0
100
AcDbBlockBegin
  2
-077-_U167
 70
     0
 10
0.0
 20
0.0
 30
0.0
  3
-077-_U167
  1

  0
TEXT
  5
2A2
330
2A0
100
AcDbEntity
  8
_0-1_Ｓ
 62
     7
100
AcDbText
 10
8907.382071190323
 20
-7262.745321453291
 30
0.0
 40
5.0
  1
30
100
AcDbText
  0
ENDBLK
  5
2A3
330
2A0
100
AcDbEntity
  8
0
100
AcDbBlockEnd
  0
BLOCK
  5
2A5
330
2A4
100
AcDbEntity
  8
0
100
AcDbBlockBegin
  2
-078-_D128
 70
     0
 10
0.0
 20
0.0
 30
0.0
  3
-078-_D128
  1

  0
LINE
  5
2A6
330
2A4
100
AcDbEntity
  8
_0-1_Ｓ
  6
Continuous
 62
     7
100
AcDbLine
 10
8896.432071190336
 20
-7254.823319715291
 30
0.0
 11
8896.432071190336
 21
-7265.745321453291
 31
0.0
  0
LINE
  5
2A7
330
2A4
100
AcDbEntity
  8
_0-1_Ｓ
  6
Continuous
 62
     7
100
AcDbLine
 10
8925.832071190312
 20
-7255.023319715213
 30
0.0
 11
8925.832071190312
 21
-7265.745321453291
 31
0.0
  0
LINE
  5
2A8
330
2A4
100
AcDbEntity
  8
_0-1_Ｓ
  6
Continuous
 62
     7
100
AcDbLine
 10
8898.432071190335
 20
-7264.745321453293
 30
0.0
 11
8923.832071190313
 21
-7264.745321453293
 31
0.0
  0
INSERT
  5
2A9
330
2A4
100
AcDbEntity
  8
_0-1_Ｓ
100
AcDbBlockReference
  2
-001-_DOTBLANK
 10
8896.432071190336
 20
-7264.745321453293
 30
0.0
 41
2.0
 42
2.0
 50
180.0
  0
INSERT
  5
2AA
330
2A4
100
AcDbEntity
  8
_0-1_Ｓ
100
AcDbBlockReference
  2
-001-_DOTBLANK
 10
8925.832071190312
 20
-7264.745321453293
 30
0.0
 41
2.0
 42
2.0
  0
INSERT
  5
2AB
330
2A4
100
AcDbEntity
  8
_0-1_Ｓ
100
AcDbBlockReference
  2
-077-_U167
 10
0.0
 20
0.0
 30
0.0
  0
POINT
  5
2AC
330
2A4
100
AcDbEntity
  8
_0-4_DEFPOINTS
 62
     7
100
AcDbPoint
 10
8896.432071190336
 20
-7244.82331971529
 30
0.0
  0
POINT
  5
2AD
330
2A4
100
AcDbEntity
  8
_0-4_DEFPOINTS
 62
     7
100
AcDbPoint
 10
8925.832071190312
 20
-7245.023319715214
 30
0.0
  0
POINT
  5
2AE
330
2A4
100
AcDbEntity
  8
_0-4_DEFPOINTS
 62
     7
100
AcDbPoint
 10
8925.832071190312
 20
-7264.745321453293
 30
0.0
  0
ENDBLK
  5
2AF
330
2A4
100
AcDbEntity
  8
0
100
AcDbBlockEnd
  0
BLOCK
  5
2B1
330
2B0
100
AcDbEntity
  8
0
100
AcDbBlockBegin
  2
-079-_U168
 70
     0
 10
0.0
 20
0.0
 30
0.0
  3
-079-_U168
  1

  0
TEXT
  5
2B2
330
2B0
100
AcDbEntity
  8
_0-1_Ｓ
 62
     7
100
AcDbText
 10
8948.378892455455
 20
-7245.241838845858
 30
0.0
 40
5.0
  1
30
 50
60.3897611952135
100
AcDbText
  0
ENDBLK
  5
2B3
330
2B0
100
AcDbEntity
  8
0
100
AcDbBlockEnd
  0
BLOCK
  5
2B5
330
2B4
100
AcDbEntity
  8
0
100
AcDbBlockBegin
  2
-080-_D129
 70
     0
 10
0.0
 20
0.0
 30
0.0
  3
-080-_D129
  1

  0
LINE
  5
2B6
330
2B4
100
AcDbEntity
  8
_0-1_Ｓ
  6
Continuous
 62
     7
100
AcDbLine
 10
8949.052932587461
 20
-7224.403145225874
 30
0.0
 11
8960.103374501645
 21
-7230.683282195608
 31
0.0
  0
LINE
  5
2B7
330
2B4
100
AcDbEntity
  8
_0-1_Ｓ
  6
Continuous
 62
     7
100
AcDbLine
 10
8934.526137668198
 20
-7249.964292097058
 30
0.0
 11
8945.576579582379
 21
-7256.244429066794
 31
0.0
  0
LINE
  5
2B8
330
2B4
100
AcDbEntity
  8
_0-1_Ｓ
  6
Continuous
 62
     7
100
AcDbLine
 10
8958.245773377489
 20
-7231.927998253002
 30
0.0
 11
8945.695367410962
 21
-7254.011518533032
 31
0.0
  0
INSERT
  5
2B9
330
2B4
100
AcDbEntity
  8
_0-1_Ｓ
100
AcDbBlockReference
  2
-001-_DOTBLANK
 10
8959.233967853853
 20
-7230.189184957424
 30
0.0
 41
2.0
 42
2.0
 50
60.38976119520818
  0
INSERT
  5
2BA
330
2B4
100
AcDbEntity
  8
_0-1_Ｓ
100
AcDbBlockReference
  2
-001-_DOTBLANK
 10
8944.70717293459
 20
-7255.750331828608
 30
0.0
 41
2.0
 42
2.0
 50
240.3897611952082
  0
INSERT
  5
2BB
330
2B4
100
AcDbEntity
  8
_0-1_Ｓ
100
AcDbBlockReference
  2
-079-_U168
 10
0.0
 20
0.0
 30
0.0
  0
POINT
  5
2BC
330
2B4
100
AcDbEntity
  8
_0-4_DEFPOINTS
 62
     7
100
AcDbPoint
 10
8940.358866109576
 20
-7219.462172844034
 30
0.0
  0
POINT
  5
2BD
330
2B4
100
AcDbEntity
  8
_0-4_DEFPOINTS
 62
     7
100
AcDbPoint
 10
8925.832071190312
 20
-7245.023319715219
 30
0.0
  0
POINT
  5
2BE
330
2B4
100
AcDbEntity
  8
_0-4_DEFPOINTS
 62
     7
100
AcDbPoint
 10
8944.70717293459
 20
-7255.750331828608
 30
0.0
  0
ENDBLK
  5
2BF
330
2B4
100
AcDbEntity
  8
0
100
AcDbBlockEnd
  0
BLOCK
  5
2C1
330
2C0
100
AcDbEntity
  8
0
100
AcDbBlockBegin
  2
-081-_D130
 70
     0
 10
0.0
 20
0.0
 30
0.0
  3
-081-_D130
  1

  0
ARC
  5
2C2
330
2C0
100
AcDbEntity
  8
_0-1_Ｓ
  6
Continuous
 62
     7
100
AcDbCircle
 10
8925.832071190283
 20
-7245.023319715219
 30
0.0
 40
9.644205321111119
100
AcDbArc
 50
71.90330282922717
 51
168.096697170796
  0
INSERT
  5
2C3
330
2C0
100
AcDbEntity
  8
_0-1_Ｓ
100
AcDbBlockReference
  2
-001-_DOTBLANK
 10
8930.654173850859
 20
-7236.671192907834
 30
0.0
 41
2.0
 42
2.0
 50
335.9516514145392
  0
INSERT
  5
2C4
330
2C0
100
AcDbEntity
  8
_0-1_Ｓ
100
AcDbBlockReference
  2
-001-_DOTBLANK
 10
8916.187865869172
 20
-7245.023319715247
 30
0.0
 41
2.0
 42
2.0
 50
264.048348585484
  0
TEXT
  5
2C5
330
2C0
100
AcDbEntity
  8
_0-1_Ｓ
 62
     7
100
AcDbText
 10
8908.76
 20
-7241.620000000001
 30
0.0
 40
5.0
  1
x
100
AcDbText
  0
POINT
  5
2C6
330
2C0
100
AcDbEntity
  8
_0-4_DEFPOINTS
 62
     7
100
AcDbPoint
 10
8924.157372511229
 20
-7235.525631543342
 30
0.0
  0
POINT
  5
2C7
330
2C0
100
AcDbEntity
  8
_0-4_DEFPOINTS
 62
     7
100
AcDbPoint
 10
8925.832071190312
 20
-7245.023319715219
 30
0.0
  0
POINT
  5
2C8
330
2C0
100
AcDbEntity
  8
_0-4_DEFPOINTS
 62
     7
100
AcDbPoint
 10
8925.832071190283
 20
-7245.023319715219
 30
0.0
  0
POINT
  5
2C9
330
2C0
100
AcDbEntity
  8
_0-4_DEFPOINTS
 62
     7
100
AcDbPoint
 10
8940.132071190342
 20
-7220.254993167026
 30
0.0
  0
POINT
  5
2CA
330
2C0
100
AcDbEntity
  8
_0-4_DEFPOINTS
 62
     7
100
AcDbPoint
 10
8897.232071190323
 20
-7245.023319715301
 30
0.0
  0
ENDBLK
  5
2CB
330
2C0
100
AcDbEntity
  8
0
100
AcDbBlockEnd
  0
BLOCK
  5
2CD
330
2CC
100
AcDbEntity
  8
0
100
AcDbBlockBegin
  2
-082-_U147
 70
     0
 10
0.0
 20
0.0
 30
0.0
  3
-082-_U147
  1

  0
TEXT
  5
2CE
330
2CC
100
AcDbEntity
  8
_0-1_Ｓ
 62
     7
100
AcDbText
 10
8956.611728441931
 20
-6905.865769971969
 30
0.0
 40
5.0
  1
120
100
AcDbText
  0
ENDBLK
  5
2CF
330
2CC
100
AcDbEntity
  8
0
100
AcDbBlockEnd
  0
BLOCK
  5
2D1
330
2D0
100
AcDbEntity
  8
0
100
AcDbBlockBegin
  2
-083-_D131
 70
     0
 10
0.0
 20
0.0
 30
0.0
  3
-083-_D131
  1

  0
LINE
  5
2D2
330
2D0
100
AcDbEntity
  8
_0-1_Ｓ
  6
Continuous
 62
     7
100
AcDbLine
 10
9022.028250404039
 20
-6889.489612538966
 30
0.0
 11
9022.028250404039
 21
-6908.865769971969
 31
0.0
  0
LINE
  5
2D3
330
2D0
100
AcDbEntity
  8
_0-1_Ｓ
  6
Continuous
 62
     7
100
AcDbLine
 10
8902.02853981315
 20
-6889.489612538966
 30
0.0
 11
8902.02853981315
 21
-6908.865769971969
 31
0.0
  0
LINE
  5
2D4
330
2D0
100
AcDbEntity
  8
_0-1_Ｓ
  6
Continuous
 62
     7
100
AcDbLine
 10
9020.028250404038
 20
-6907.865769971968
 30
0.0
 11
8904.028539813149
 21
-6907.865769971968
 31
0.0
  0
INSERT
  5
2D5
330
2D0
100
AcDbEntity
  8
_0-1_Ｓ
100
AcDbBlockReference
  2
-001-_DOTBLANK
 10
9022.028250404039
 20
-6907.865769971968
 30
0.0
 41
2.0
 42
2.0
  0
INSERT
  5
2D6
330
2D0
100
AcDbEntity
  8
_0-1_Ｓ
100
AcDbBlockReference
  2
-001-_DOTBLANK
 10
8902.02853981315
 20
-6907.865769971968
 30
0.0
 41
2.0
 42
2.0
 50
180.0
  0
INSERT
  5
2D7
330
2D0
100
AcDbEntity
  8
_0-1_Ｓ
100
AcDbBlockReference
  2
-082-_U147
 10
0.0
 20
0.0
 30
0.0
  0
POINT
  5
2D8
330
2D0
100
AcDbEntity
  8
_0-4_DEFPOINTS
 62
     7
100
AcDbPoint
 10
9022.028250404039
 20
-6879.489612538967
 30
0.0
  0
POINT
  5
2D9
330
2D0
100
AcDbEntity
  8
_0-4_DEFPOINTS
 62
     7
100
AcDbPoint
 10
8902.02853981315
 20
-6879.489612538967
 30
0.0
  0
POINT
  5
2DA
330
2D0
100
AcDbEntity
  8
_0-4_DEFPOINTS
 62
     7
100
AcDbPoint
 10
8902.02853981315
 20
-6907.865769971968
 30
0.0
  0
ENDBLK
  5
2DB
330
2D0
100
AcDbEntity
  8
0
100
AcDbBlockEnd
  0
BLOCK
  5
2DD
330
2DC
100
AcDbEntity
  8
0
100
AcDbBlockBegin
  2
-084-_U148
 70
     0
 10
0.0
 20
0.0
 30
0.0
  3
-084-_U148
  1

  0
TEXT
  5
2DE
330
2DC
100
AcDbEntity
  8
_0-1_Ｓ
 62
     7
100
AcDbText
 10
8952.445200525257
 20
-6888.059479465562
 30
0.0
 40
5.0
  1
110
100
AcDbText
  0
ENDBLK
  5
2DF
330
2DC
100
AcDbEntity
  8
0
100
AcDbBlockEnd
  0
BLOCK
  5
2E1
330
2E0
100
AcDbEntity
  8
0
100
AcDbBlockBegin
  2
-085-_D132
 70
     0
 10
0.0
 20
0.0
 30
0.0
  3
-085-_D132
  1

  0
LINE
  5
2E2
330
2E0
100
AcDbEntity
  8
_0-1_Ｓ
  6
Continuous
 62
     7
100
AcDbLine
 10
8902.02853981315
 20
-6848.584790636351
 30
0.0
 11
8902.02853981315
 21
-6891.059479465562
 31
0.0
  0
LINE
  5
2E3
330
2E0
100
AcDbEntity
  8
_0-1_Ｓ
  6
Continuous
 62
     7
100
AcDbLine
 10
9012.028527904039
 20
-6848.583403203391
 30
0.0
 11
9012.028527904039
 21
-6891.059479465562
 31
0.0
  0
LINE
  5
2E4
330
2E0
100
AcDbEntity
  8
_0-1_Ｓ
  6
Continuous
 62
     7
100
AcDbLine
 10
8904.028539813149
 20
-6890.059479465562
 30
0.0
 11
9010.028527904038
 21
-6890.059479465562
 31
0.0
  0
INSERT
  5
2E5
330
2E0
100
AcDbEntity
  8
_0-1_Ｓ
100
AcDbBlockReference
  2
-001-_DOTBLANK
 10
8902.02853981315
 20
-6890.059479465562
 30
0.0
 41
2.0
 42
2.0
 50
180.0
  0
INSERT
  5
2E6
330
2E0
100
AcDbEntity
  8
_0-1_Ｓ
100
AcDbBlockReference
  2
-001-_DOTBLANK
 10
9012.028527904039
 20
-6890.059479465562
 30
0.0
 41
2.0
 42
2.0
  0
INSERT
  5
2E7
330
2E0
100
AcDbEntity
  8
_0-1_Ｓ
100
AcDbBlockReference
  2
-084-_U148
 10
0.0
 20
0.0
 30
0.0
  0
POINT
  5
2E8
330
2E0
100
AcDbEntity
  8
_0-4_DEFPOINTS
 62
     7
100
AcDbPoint
 10
8902.02853981315
 20
-6838.584790636352
 30
0.0
  0
POINT
  5
2E9
330
2E0
100
AcDbEntity
  8
_0-4_DEFPOINTS
 62
     7
100
AcDbPoint
 10
9012.028527904039
 20
-6838.58340320339
 30
0.0
  0
POINT
  5
2EA
330
2E0
100
AcDbEntity
  8
_0-4_DEFPOINTS
 62
     7
100
AcDbPoint
 10
9012.028527904039
 20
-6890.059479465562
 30
0.0
  0
ENDBLK
  5
2EB
330
2E0
100
AcDbEntity
  8
0
100
AcDbBlockEnd
  0
BLOCK
  5
2ED
330
2EC
100
AcDbEntity
  8
0
100
AcDbBlockBegin
  2
-086-_U149
 70
     0
 10
0.0
 20
0.0
 30
0.0
  3
-086-_U149
  1

  0
TEXT
  5
2EE
330
2EC
100
AcDbEntity
  8
_0-1_Ｓ
 62
     7
100
AcDbText
 10
9014.111722487372
 20
-6888.059479465562
 30
0.0
 40
5.0
  1
10
100
AcDbText
  0
ENDBLK
  5
2EF
330
2EC
100
AcDbEntity
  8
0
100
AcDbBlockEnd
  0
BLOCK
  5
2F1
330
2F0
100
AcDbEntity
  8
0
100
AcDbBlockBegin
  2
-087-_D133
 70
     0
 10
0.0
 20
0.0
 30
0.0
  3
-087-_D133
  1

  0
LINE
  5
2F2
330
2F0
100
AcDbEntity
  8
_0-1_Ｓ
  6
Continuous
 62
     7
100
AcDbLine
 10
9012.028527904039
 20
-6857.583403203389
 30
0.0
 11
9012.028527904039
 21
-6891.059479465562
 31
0.0
  0
LINE
  5
2F3
330
2F0
100
AcDbEntity
  8
_0-1_Ｓ
  6
Continuous
 62
     7
100
AcDbLine
 10
9022.028250404039
 20
-6848.58325320339
 30
0.0
 11
9022.028250404039
 21
-6891.059479465562
 31
0.0
  0
LINE
  5
2F4
330
2F0
100
AcDbEntity
  8
_0-1_Ｓ
  6
Continuous
 62
     7
100
AcDbLine
 10
9014.028527904038
 20
-6890.059479465562
 30
0.0
 11
9020.028250404038
 21
-6890.059479465562
 31
0.0
  0
INSERT
  5
2F5
330
2F0
100
AcDbEntity
  8
_0-1_Ｓ
100
AcDbBlockReference
  2
-001-_DOTBLANK
 10
9012.028527904039
 20
-6890.059479465562
 30
0.0
 41
2.0
 42
2.0
 50
180.0
  0
INSERT
  5
2F6
330
2F0
100
AcDbEntity
  8
_0-1_Ｓ
100
AcDbBlockReference
  2
-001-_DOTBLANK
 10
9022.028250404039
 20
-6890.059479465562
 30
0.0
 41
2.0
 42
2.0
  0
INSERT
  5
2F7
330
2F0
100
AcDbEntity
  8
_0-1_Ｓ
100
AcDbBlockReference
  2
-086-_U149
 10
0.0
 20
0.0
 30
0.0
  0
POINT
  5
2F8
330
2F0
100
AcDbEntity
  8
_0-4_DEFPOINTS
 62
     7
100
AcDbPoint
 10
9012.028527904039
 20
-6847.58340320339
 30
0.0
  0
POINT
  5
2F9
330
2F0
100
AcDbEntity
  8
_0-4_DEFPOINTS
 62
     7
100
AcDbPoint
 10
9022.028250404039
 20
-6838.58325320339
 30
0.0
  0
POINT
  5
2FA
330
2F0
100
AcDbEntity
  8
_0-4_DEFPOINTS
 62
     7
100
AcDbPoint
 10
9022.028250404039
 20
-6890.059479465562
 30
0.0
  0
ENDBLK
  5
2FB
330
2F0
100
AcDbEntity
  8
0
100
AcDbBlockEnd
  0
BLOCK
  5
2FD
330
2FC
100
AcDbEntity
  8
0
100
AcDbBlockBegin
  2
-088-_U150
 70
     0
 10
0.0
 20
0.0
 30
0.0
  3
-088-_U150
  1

  0
TEXT
  5
2FE
330
2FC
100
AcDbEntity
  8
_0-1_Ｓ
 62
     7
100
AcDbText
 10
9080.008648911414
 20
-6837.800016120022
 30
0.0
 40
5.0
  1
10
 50
90.0
100
AcDbText
  0
ENDBLK
  5
2FF
330
2FC
100
AcDbEntity
  8
0
100
AcDbBlockEnd
  0
BLOCK
  5
301
330
300
100
AcDbEntity
  8
0
100
AcDbBlockBegin
  2
-089-_D134
 70
     0
 10
0.0
 20
0.0
 30
0.0
  3
-089-_D134
  1

  0
LINE
  5
302
330
300
100
AcDbEntity
  8
_0-1_Ｓ
  6
Continuous
 62
     7
100
AcDbLine
 10
9042.228360404038
 20
-6829.883313203392
 30
0.0
 11
9083.008648911413
 21
-6829.883313203392
 31
0.0
  0
LINE
  5
303
330
300
100
AcDbEntity
  8
_0-1_Ｓ
  6
Continuous
 62
     7
100
AcDbLine
 10
9020.728531790652
 20
-6839.883385703318
 30
0.0
 11
9083.008648911413
 21
-6839.883385703318
 31
0.0
  0
LINE
  5
304
330
300
100
AcDbEntity
  8
_0-1_Ｓ
  6
Continuous
 62
     7
100
AcDbLine
 10
9082.008648911413
 20
-6831.883313203393
 30
0.0
 11
9082.008648911413
 21
-6837.883385703318
 31
0.0
  0
INSERT
  5
305
330
300
100
AcDbEntity
  8
_0-1_Ｓ
100
AcDbBlockReference
  2
-001-_DOTBLANK
 10
9082.008648911413
 20
-6829.883313203392
 30
0.0
 41
2.0
 42
2.0
 50
90.0
  0
INSERT
  5
306
330
300
100
AcDbEntity
  8
_0-1_Ｓ
100
AcDbBlockReference
  2
-001-_DOTBLANK
 10
9082.008648911413
 20
-6839.883385703318
 30
0.0
 41
2.0
 42
2.0
 50
270.0
  0
INSERT
  5
307
330
300
100
AcDbEntity
  8
_0-1_Ｓ
100
AcDbBlockReference
  2
-088-_U150
 10
0.0
 20
0.0
 30
0.0
  0
POINT
  5
308
330
300
100
AcDbEntity
  8
_0-4_DEFPOINTS
 62
     7
100
AcDbPoint
 10
9032.228360404038
 20
-6829.883313203392
 30
0.0
  0
POINT
  5
309
330
300
100
AcDbEntity
  8
_0-4_DEFPOINTS
 62
     7
100
AcDbPoint
 10
9010.728531790652
 20
-6839.883385703318
 30
0.0
  0
POINT
  5
30A
330
300
100
AcDbEntity
  8
_0-4_DEFPOINTS
 62
     7
100
AcDbPoint
 10
9082.008648911413
 20
-6839.883385703318
 30
0.0
  0
ENDBLK
  5
30B
330
300
100
AcDbEntity
  8
0
100
AcDbBlockEnd
  0
BLOCK
  5
30D
330
30C
100
AcDbEntity
  8
0
100
AcDbBlockBegin
  2
-090-_U175
 70
     0
 10
0.0
 20
0.0
 30
0.0
  3
-090-_U175
  1

  0
TEXT
  5
30E
330
30C
100
AcDbEntity
  8
_0-1_Ｓ
 62
     7
100
AcDbText
 10
8975.128408444719
 20
-7089.862133359351
 30
0.0
 40
5.0
  1
150
100
AcDbText
  0
ENDBLK
  5
30F
330
30C
100
AcDbEntity
  8
0
100
AcDbBlockEnd
  0
BLOCK
  5
311
330
310
100
AcDbEntity
  8
0
100
AcDbBlockBegin
  2
-091-_D135
 70
     0
 10
0.0
 20
0.0
 30
0.0
  3
-091-_D135
  1

  0
LINE
  5
312
330
310
100
AcDbEntity
  8
_0-1_Ｓ
  6
Continuous
 62
     7
100
AcDbLine
 10
8905.545075111382
 20
-7048.953915748924
 30
0.0
 11
8905.545075111382
 21
-7092.862133359351
 31
0.0
  0
LINE
  5
313
330
310
100
AcDbEntity
  8
_0-1_Ｓ
  6
Continuous
 62
     7
100
AcDbLine
 10
9055.545075111387
 20
-7048.953915748924
 30
0.0
 11
9055.545075111387
 21
-7092.862133359351
 31
0.0
  0
LINE
  5
314
330
310
100
AcDbEntity
  8
_0-1_Ｓ
  6
Continuous
 62
     7
100
AcDbLine
 10
8907.545075111384
 20
-7091.862133359349
 30
0.0
 11
9053.545075111388
 21
-7091.862133359349
 31
0.0
  0
INSERT
  5
315
330
310
100
AcDbEntity
  8
_0-1_Ｓ
100
AcDbBlockReference
  2
-001-_DOTBLANK
 10
8905.545075111382
 20
-7091.862133359349
 30
0.0
 41
2.0
 42
2.0
 50
180.0
  0
INSERT
  5
316
330
310
100
AcDbEntity
  8
_0-1_Ｓ
100
AcDbBlockReference
  2
-001-_DOTBLANK
 10
9055.545075111387
 20
-7091.862133359349
 30
0.0
 41
2.0
 42
2.0
  0
INSERT
  5
317
330
310
100
AcDbEntity
  8
_0-1_Ｓ
100
AcDbBlockReference
  2
-090-_U175
 10
0.0
 20
0.0
 30
0.0
  0
POINT
  5
318
330
310
100
AcDbEntity
  8
_0-4_DEFPOINTS
 62
     7
100
AcDbPoint
 10
8905.545075111382
 20
-7038.953915748924
 30
0.0
  0
POINT
  5
319
330
310
100
AcDbEntity
  8
_0-4_DEFPOINTS
 62
     7
100
AcDbPoint
 10
9055.545075111387
 20
-7038.953915748924
 30
0.0
  0
POINT
  5
31A
330
310
100
AcDbEntity
  8
_0-4_DEFPOINTS
 62
     7
100
AcDbPoint
 10
9055.545075111387
 20
-7091.862133359349
 30
0.0
  0
ENDBLK
  5
31B
330
310
100
AcDbEntity
  8
0
100
AcDbBlockEnd
  0
BLOCK
  5
31D
330
31C
100
AcDbEntity
  8
0
100
AcDbBlockBegin
  2
-092-_U176
 70
     0
 10
0.0
 20
0.0
 30
0.0
  3
-092-_U176
  1

  0
TEXT
  5
31E
330
31C
100
AcDbEntity
  8
_0-1_Ｓ
 62
     7
100
AcDbText
 10
8975.139583342436
 20
-7070.945519254644
 30
0.0
 40
5.0
  1
120
100
AcDbText
  0
ENDBLK
  5
31F
330
31C
100
AcDbEntity
  8
0
100
AcDbBlockEnd
  0
BLOCK
  5
321
330
320
100
AcDbEntity
  8
0
100
AcDbBlockBegin
  2
-093-_D136
 70
     0
 10
0.0
 20
0.0
 30
0.0
  3
-093-_D136
  1

  0
LINE
  5
322
330
320
100
AcDbEntity
  8
_0-1_Ｓ
  6
Continuous
 62
     7
100
AcDbLine
 10
8920.545075111379
 20
-7039.953915748924
 30
0.0
 11
8920.545075111379
 21
-7073.945519254644
 31
0.0
  0
LINE
  5
323
330
320
100
AcDbEntity
  8
_0-1_Ｓ
  6
Continuous
 62
     7
100
AcDbLine
 10
9040.56742490683
 20
-7039.953915748924
 30
0.0
 11
9040.56742490683
 21
-7073.945519254644
 31
0.0
  0
LINE
  5
324
330
320
100
AcDbEntity
  8
_0-1_Ｓ
  6
Continuous
 62
     7
100
AcDbLine
 10
8922.545075111376
 20
-7072.945519254644
 30
0.0
 11
9038.56742490683
 21
-7072.945519254644
 31
0.0
  0
INSERT
  5
325
330
320
100
AcDbEntity
  8
_0-1_Ｓ
100
AcDbBlockReference
  2
-001-_DOTBLANK
 10
8920.545075111379
 20
-7072.945519254644
 30
0.0
 41
2.0
 42
2.0
 50
180.0
  0
INSERT
  5
326
330
320
100
AcDbEntity
  8
_0-1_Ｓ
100
AcDbBlockReference
  2
-001-_DOTBLANK
 10
9040.56742490683
 20
-7072.945519254644
 30
0.0
 41
2.0
 42
2.0
  0
INSERT
  5
327
330
320
100
AcDbEntity
  8
_0-1_Ｓ
100
AcDbBlockReference
  2
-092-_U176
 10
0.0
 20
0.0
 30
0.0
  0
POINT
  5
328
330
320
100
AcDbEntity
  8
_0-4_DEFPOINTS
 62
     7
100
AcDbPoint
 10
8920.545075111379
 20
-7029.953915748925
 30
0.0
  0
POINT
  5
329
330
320
100
AcDbEntity
  8
_0-4_DEFPOINTS
 62
     7
100
AcDbPoint
 10
9040.56742490683
 20
-7029.953915748925
 30
0.0
  0
POINT
  5
32A
330
320
100
AcDbEntity
  8
_0-4_DEFPOINTS
 62
     7
100
AcDbPoint
 10
9040.56742490683
 20
-7072.945519254644
 30
0.0
  0
ENDBLK
  5
32B
330
320
100
AcDbEntity
  8
0
100
AcDbBlockEnd
  0
BLOCK
  5
32D
330
32C
100
AcDbEntity
  8
0
100
AcDbBlockBegin
  2
-094-_U177
 70
     0
 10
0.0
 20
0.0
 30
0.0
  3
-094-_U177
  1

  0
TEXT
  5
32E
330
32C
100
AcDbEntity
  8
_0-1_Ｓ
 62
     7
100
AcDbText
 10
8859.168858877511
 20
-7036.870582415594
 30
0.0
 40
5.0
  1
17.5
 50
90.0
100
AcDbText
  0
ENDBLK
  5
32F
330
32C
100
AcDbEntity
  8
0
100
AcDbBlockEnd
  0
BLOCK
  5
331
330
330
100
AcDbEntity
  8
0
100
AcDbBlockBegin
  2
-095-_D137
 70
     0
 10
0.0
 20
0.0
 30
0.0
  3
-095-_D137
  1

  0
LINE
  5
332
330
330
100
AcDbEntity
  8
_0-1_Ｓ
  6
Continuous
 62
     7
100
AcDbLine
 10
8908.545075111378
 20
-7021.453915748924
 30
0.0
 11
8860.168858877507
 21
-7021.453915748924
 31
0.0
  0
LINE
  5
333
330
330
100
AcDbEntity
  8
_0-1_Ｓ
  6
Continuous
 62
     7
100
AcDbLine
 10
8895.545075111384
 20
-7038.953915748932
 30
0.0
 11
8860.168858877507
 21
-7038.953915748932
 31
0.0
  0
LINE
  5
334
330
330
100
AcDbEntity
  8
_0-1_Ｓ
  6
Continuous
 62
     7
100
AcDbLine
 10
8861.16885887751
 20
-7023.453915748925
 30
0.0
 11
8861.16885887751
 21
-7036.953915748934
 31
0.0
  0
INSERT
  5
335
330
330
100
AcDbEntity
  8
_0-1_Ｓ
100
AcDbBlockReference
  2
-001-_DOTBLANK
 10
8861.16885887751
 20
-7021.453915748924
 30
0.0
 41
2.0
 42
2.0
 50
90.0
  0
INSERT
  5
336
330
330
100
AcDbEntity
  8
_0-1_Ｓ
100
AcDbBlockReference
  2
-001-_DOTBLANK
 10
8861.16885887751
 20
-7038.953915748932
 30
0.0
 41
2.0
 42
2.0
 50
270.0
  0
INSERT
  5
337
330
330
100
AcDbEntity
  8
_0-1_Ｓ
100
AcDbBlockReference
  2
-094-_U177
 10
0.0
 20
0.0
 30
0.0
  0
POINT
  5
338
330
330
100
AcDbEntity
  8
_0-4_DEFPOINTS
 62
     7
100
AcDbPoint
 10
8918.54507511138
 20
-7021.453915748924
 30
0.0
  0
POINT
  5
339
330
330
100
AcDbEntity
  8
_0-4_DEFPOINTS
 62
     7
100
AcDbPoint
 10
8905.545075111382
 20
-7038.953915748932
 30
0.0
  0
POINT
  5
33A
330
330
100
AcDbEntity
  8
_0-4_DEFPOINTS
 62
     7
100
AcDbPoint
 10
8861.16885887751
 20
-7038.953915748932
 30
0.0
  0
ENDBLK
  5
33B
330
330
100
AcDbEntity
  8
0
100
AcDbBlockEnd
  0
BLOCK
  5
33D
330
33C
100
AcDbEntity
  8
0
100
AcDbBlockBegin
  2
-096-_U178
 70
     0
 10
0.0
 20
0.0
 30
0.0
  3
-096-_U178
  1

  0
TEXT
  5
33E
330
33C
100
AcDbEntity
  8
_0-1_Ｓ
 62
     7
100
AcDbText
 10
9344.723612841683
 20
-6905.86576997194
 30
0.0
 40
5.0
  1
180
100
AcDbText
  0
ENDBLK
  5
33F
330
33C
100
AcDbEntity
  8
0
100
AcDbBlockEnd
  0
BLOCK
  5
341
330
340
100
AcDbEntity
  8
0
100
AcDbBlockBegin
  2
-097-_D138
 70
     0
 10
0.0
 20
0.0
 30
0.0
  3
-097-_D138
  1

  0
LINE
  5
342
330
340
100
AcDbEntity
  8
_0-1_Ｓ
  6
Continuous
 62
     7
100
AcDbLine
 10
9440.140134803796
 20
-6889.489612538937
 30
0.0
 11
9440.140134803796
 21
-6908.86576997194
 31
0.0
  0
LINE
  5
343
330
340
100
AcDbEntity
  8
_0-1_Ｓ
  6
Continuous
 62
     7
100
AcDbLine
 10
9260.140424212904
 20
-6889.489612538937
 30
0.0
 11
9260.140424212904
 21
-6908.86576997194
 31
0.0
  0
LINE
  5
344
330
340
100
AcDbEntity
  8
_0-1_Ｓ
  6
Continuous
 62
     7
100
AcDbLine
 10
9438.140134803791
 20
-6907.865769971941
 30
0.0
 11
9262.140424212905
 21
-6907.865769971941
 31
0.0
  0
INSERT
  5
345
330
340
100
AcDbEntity
  8
_0-1_Ｓ
100
AcDbBlockReference
  2
-001-_DOTBLANK
 10
9440.140134803796
 20
-6907.865769971941
 30
0.0
 41
2.0
 42
2.0
  0
INSERT
  5
346
330
340
100
AcDbEntity
  8
_0-1_Ｓ
100
AcDbBlockReference
  2
-001-_DOTBLANK
 10
9260.140424212904
 20
-6907.865769971941
 30
0.0
 41
2.0
 42
2.0
 50
180.0
  0
INSERT
  5
347
330
340
100
AcDbEntity
  8
_0-1_Ｓ
100
AcDbBlockReference
  2
-096-_U178
 10
0.0
 20
0.0
 30
0.0
  0
POINT
  5
348
330
340
100
AcDbEntity
  8
_0-4_DEFPOINTS
 62
     7
100
AcDbPoint
 10
9440.140134803796
 20
-6879.489612538939
 30
0.0
  0
POINT
  5
349
330
340
100
AcDbEntity
  8
_0-4_DEFPOINTS
 62
     7
100
AcDbPoint
 10
9260.140424212904
 20
-6879.489612538939
 30
0.0
  0
POINT
  5
34A
330
340
100
AcDbEntity
  8
_0-4_DEFPOINTS
 62
     7
100
AcDbPoint
 10
9260.140424212904
 20
-6907.865769971941
 30
0.0
  0
ENDBLK
  5
34B
330
340
100
AcDbEntity
  8
0
100
AcDbBlockEnd
  0
BLOCK
  5
34D
330
34C
100
AcDbEntity
  8
0
100
AcDbBlockBegin
  2
-098-_U179
 70
     0
 10
0.0
 20
0.0
 30
0.0
  3
-098-_U179
  1

  0
TEXT
  5
34E
330
34C
100
AcDbEntity
  8
_0-1_Ｓ
 62
     7
100
AcDbText
 10
9339.723751591684
 20
-6888.059479465534
 30
0.0
 40
5.0
  1
170
100
AcDbText
  0
ENDBLK
  5
34F
330
34C
100
AcDbEntity
  8
0
100
AcDbBlockEnd
  0
BLOCK
  5
351
330
350
100
AcDbEntity
  8
0
100
AcDbBlockBegin
  2
-099-_D139
 70
     0
 10
0.0
 20
0.0
 30
0.0
  3
-099-_D139
  1

  0
LINE
  5
352
330
350
100
AcDbEntity
  8
_0-1_Ｓ
  6
Continuous
 62
     7
100
AcDbLine
 10
9260.140424212904
 20
-6848.584790636323
 30
0.0
 11
9260.140424212904
 21
-6891.059479465534
 31
0.0
  0
LINE
  5
353
330
350
100
AcDbEntity
  8
_0-1_Ｓ
  6
Continuous
 62
     7
100
AcDbLine
 10
9430.140412303792
 20
-6848.583403203362
 30
0.0
 11
9430.140412303792
 21
-6891.059479465534
 31
0.0
  0
LINE
  5
354
330
350
100
AcDbEntity
  8
_0-1_Ｓ
  6
Continuous
 62
     7
100
AcDbLine
 10
9262.140424212905
 20
-6890.059479465533
 30
0.0
 11
9428.140412303795
 21
-6890.059479465533
 31
0.0
  0
INSERT
  5
355
330
350
100
AcDbEntity
  8
_0-1_Ｓ
100
AcDbBlockReference
  2
-001-_DOTBLANK
 10
9260.140424212904
 20
-6890.059479465533
 30
0.0
 41
2.0
 42
2.0
 50
180.0
  0
INSERT
  5
356
330
350
100
AcDbEntity
  8
_0-1_Ｓ
100
AcDbBlockReference
  2
-001-_DOTBLANK
 10
9430.140412303792
 20
-6890.059479465533
 30
0.0
 41
2.0
 42
2.0
  0
INSERT
  5
357
330
350
100
AcDbEntity
  8
_0-1_Ｓ
100
AcDbBlockReference
  2
-098-_U179
 10
0.0
 20
0.0
 30
0.0
  0
POINT
  5
358
330
350
100
AcDbEntity
  8
_0-4_DEFPOINTS
 62
     7
100
AcDbPoint
 10
9260.140424212904
 20
-6838.584790636324
 30
0.0
  0
POINT
  5
359
330
350
100
AcDbEntity
  8
_0-4_DEFPOINTS
 62
     7
100
AcDbPoint
 10
9430.140412303792
 20
-6838.583403203362
 30
0.0
  0
POINT
  5
35A
330
350
100
AcDbEntity
  8
_0-4_DEFPOINTS
 62
     7
100
AcDbPoint
 10
9430.140412303792
 20
-6890.059479465533
 30
0.0
  0
ENDBLK
  5
35B
330
350
100
AcDbEntity
  8
0
100
AcDbBlockEnd
  0
BLOCK
  5
35D
330
35C
100
AcDbEntity
  8
0
100
AcDbBlockBegin
  2
-100-_U180
 70
     0
 10
0.0
 20
0.0
 30
0.0
  3
-100-_U180
  1

  0
TEXT
  5
35E
330
35C
100
AcDbEntity
  8
_0-1_Ｓ
 62
     7
100
AcDbText
 10
9432.223606887125
 20
-6888.059479465534
 30
0.0
 40
5.0
  1
10
100
AcDbText
  0
ENDBLK
  5
35F
330
35C
100
AcDbEntity
  8
0
100
AcDbBlockEnd
  0
BLOCK
  5
361
330
360
100
AcDbEntity
  8
0
100
AcDbBlockBegin
  2
-101-_D140
 70
     0
 10
0.0
 20
0.0
 30
0.0
  3
-101-_D140
  1

  0
LINE
  5
362
330
360
100
AcDbEntity
  8
_0-1_Ｓ
  6
Continuous
 62
     7
100
AcDbLine
 10
9430.140412303792
 20
-6857.583403203363
 30
0.0
 11
9430.140412303792
 21
-6891.059479465534
 31
0.0
  0
LINE
  5
363
330
360
100
AcDbEntity
  8
_0-1_Ｓ
  6
Continuous
 62
     7
100
AcDbLine
 10
9440.140134803796
 20
-6848.583253203362
 30
0.0
 11
9440.140134803796
 21
-6891.059479465534
 31
0.0
  0
LINE
  5
364
330
360
100
AcDbEntity
  8
_0-1_Ｓ
  6
Continuous
 62
     7
100
AcDbLine
 10
9432.140412303793
 20
-6890.059479465533
 30
0.0
 11
9438.140134803791
 21
-6890.059479465533
 31
0.0
  0
INSERT
  5
365
330
360
100
AcDbEntity
  8
_0-1_Ｓ
100
AcDbBlockReference
  2
-001-_DOTBLANK
 10
9430.140412303792
 20
-6890.059479465533
 30
0.0
 41
2.0
 42
2.0
 50
180.0
  0
INSERT
  5
366
330
360
100
AcDbEntity
  8
_0-1_Ｓ
100
AcDbBlockReference
  2
-001-_DOTBLANK
 10
9440.140134803796
 20
-6890.059479465533
 30
0.0
 41
2.0
 42
2.0
  0
INSERT
  5
367
330
360
100
AcDbEntity
  8
_0-1_Ｓ
100
AcDbBlockReference
  2
-100-_U180
 10
0.0
 20
0.0
 30
0.0
  0
POINT
  5
368
330
360
100
AcDbEntity
  8
_0-4_DEFPOINTS
 62
     7
100
AcDbPoint
 10
9430.140412303792
 20
-6847.583403203362
 30
0.0
  0
POINT
  5
369
330
360
100
AcDbEntity
  8
_0-4_DEFPOINTS
 62
     7
100
AcDbPoint
 10
9440.140134803796
 20
-6838.583253203362
 30
0.0
  0
POINT
  5
36A
330
360
100
AcDbEntity
  8
_0-4_DEFPOINTS
 62
     7
100
AcDbPoint
 10
9440.140134803796
 20
-6890.059479465533
 30
0.0
  0
ENDBLK
  5
36B
330
360
100
AcDbEntity
  8
0
100
AcDbBlockEnd
  0
BLOCK
  5
36D
330
36C
100
AcDbEntity
  8
0
100
AcDbBlockBegin
  2
-102-_U181
 70
     0
 10
0.0
 20
0.0
 30
0.0
  3
-102-_U181
  1

  0
TEXT
  5
36E
330
36C
100
AcDbEntity
  8
_0-1_Ｓ
 62
     7
100
AcDbText
 10
9498.120533311171
 20
-6837.800016119992
 30
0.0
 40
5.0
  1
10
 50
90.0
100
AcDbText
  0
ENDBLK
  5
36F
330
36C
100
AcDbEntity
  8
0
100
AcDbBlockEnd
  0
BLOCK
  5
371
330
370
100
AcDbEntity
  8
0
100
AcDbBlockBegin
  2
-103-_D141
 70
     0
 10
0.0
 20
0.0
 30
0.0
  3
-103-_D141
  1

  0
LINE
  5
372
330
370
100
AcDbEntity
  8
_0-1_Ｓ
  6
Continuous
 62
     7
100
AcDbLine
 10
9460.340244803793
 20
-6829.883313203365
 30
0.0
 11
9501.120533311169
 21
-6829.883313203365
 31
0.0
  0
LINE
  5
373
330
370
100
AcDbEntity
  8
_0-1_Ｓ
  6
Continuous
 62
     7
100
AcDbLine
 10
9438.840416190407
 20
-6839.88338570329
 30
0.0
 11
9501.120533311169
 21
-6839.88338570329
 31
0.0
  0
LINE
  5
374
330
370
100
AcDbEntity
  8
_0-1_Ｓ
  6
Continuous
 62
     7
100
AcDbLine
 10
9500.120533311168
 20
-6831.883313203364
 30
0.0
 11
9500.120533311168
 21
-6837.88338570329
 31
0.0
  0
INSERT
  5
375
330
370
100
AcDbEntity
  8
_0-1_Ｓ
100
AcDbBlockReference
  2
-001-_DOTBLANK
 10
9500.120533311168
 20
-6829.883313203365
 30
0.0
 41
2.0
 42
2.0
 50
90.0
  0
INSERT
  5
376
330
370
100
AcDbEntity
  8
_0-1_Ｓ
100
AcDbBlockReference
  2
-001-_DOTBLANK
 10
9500.120533311168
 20
-6839.88338570329
 30
0.0
 41
2.0
 42
2.0
 50
270.0
  0
INSERT
  5
377
330
370
100
AcDbEntity
  8
_0-1_Ｓ
100
AcDbBlockReference
  2
-102-_U181
 10
0.0
 20
0.0
 30
0.0
  0
POINT
  5
378
330
370
100
AcDbEntity
  8
_0-4_DEFPOINTS
 62
     7
100
AcDbPoint
 10
9450.340244803795
 20
-6829.883313203365
 30
0.0
  0
POINT
  5
379
330
370
100
AcDbEntity
  8
_0-4_DEFPOINTS
 62
     7
100
AcDbPoint
 10
9428.840416190407
 20
-6839.88338570329
 30
0.0
  0
POINT
  5
37A
330
370
100
AcDbEntity
  8
_0-4_DEFPOINTS
 62
     7
100
AcDbPoint
 10
9500.120533311168
 20
-6839.88338570329
 30
0.0
  0
ENDBLK
  5
37B
330
370
100
AcDbEntity
  8
0
100
AcDbBlockEnd
  0
ENDSEC
  0
SECTION
  2
ENTITIES
  0
INSERT
  5
37C
330
6F
100
AcDbEntity
  8
_0-0_0
100
AcDbBlockReference
  2
-000-F-1
 10
204.6605809298626
 20
513.6699009695941
 30
0.0
  0
INSERT
  5
396
330
6F
100
AcDbEntity
  8
_0-1_Ｓ
100
AcDbBlockReference
  2
-033-_D104
 10
-8983.190326279189
 20
7726.281440009268
 30
0.0
  0
INSERT
  5
609
330
6F
100
AcDbEntity
  8
_0-1_Ｓ
100
AcDbBlockReference
  2
-035-_D105
 10
-8983.190326279189
 20
7726.281440009268
 30
0.0
  0
INSERT
  5
60A
330
6F
100
AcDbEntity
  8
_0-1_Ｓ
100
AcDbBlockReference
  2
-037-_D106
 10
-8983.190326279189
 20
7726.281440009268
 30
0.0
  0
INSERT
  5
60B
330
6F
100
AcDbEntity
  8
_0-1_Ｓ
100
AcDbBlockReference
  2
-039-_D107
 10
-8983.190326279189
 20
7726.281440009268
 30
0.0
  0
INSERT
  5
60C
330
6F
100
AcDbEntity
  8
_0-1_Ｓ
100
AcDbBlockReference
  2
-013-_U84
 10
-8671.840501174195
 20
7726.281440009268
 30
0.0
  0
INSERT
  5
60D
330
6F
100
AcDbEntity
  8
_0-1_Ｓ
100
AcDbBlockReference
  2
-014-_U85
 10
-8687.239745779017
 20
7726.281440009268
 30
0.0
  0
INSERT
  5
9A8
330
6F
100
AcDbEntity
  8
_0-1_Ｓ
100
AcDbBlockReference
  2
-041-_D108
 10
-8983.190326279189
 20
7726.281440009268
 30
0.0
  0
INSERT
  5
9A9
330
6F
100
AcDbEntity
  8
_0-1_Ｓ
100
AcDbBlockReference
  2
-043-_D109
 10
-8983.190326279189
 20
7726.281440009268
 30
0.0
  0
INSERT
  5
9AA
330
6F
100
AcDbEntity
  8
_0-1_Ｓ
100
AcDbBlockReference
  2
-045-_D110
 10
-8983.190326279189
 20
7726.281440009268
 30
0.0
  0
INSERT
  5
9AB
330
6F
100
AcDbEntity
  8
_0-1_Ｓ
100
AcDbBlockReference
  2
-047-_D111
 10
-8983.190326279189
 20
7726.281440009268
 30
0.0
  0
INSERT
  5
9AC
330
6F
100
AcDbEntity
  8
_0-1_Ｓ
100
AcDbBlockReference
  2
-049-_D112
 10
-8983.190326279189
 20
7726.281440009268
 30
0.0
  0
INSERT
  5
9AD
330
6F
100
AcDbEntity
  8
_0-1_Ｓ
100
AcDbBlockReference
  2
-051-_D113
 10
-8983.190326279189
 20
7726.281440009268
 30
0.0
  0
LINE
  5
9AE
330
6F
100
AcDbEntity
  8
_0-0_0
  6
Continuous
 62
     7
100
AcDbLine
 10
504.1602547364171
 20
491.6990249836645
 30
0.0
 11
512.6602547364136
 21
491.6990249836645
 31
0.0
  0
LINE
  5
9AF
330
6F
100
AcDbEntity
  8
_0-0_0
  6
Continuous
 62
     7
100
AcDbLine
 10
503.160254736421
 20
490.6990249836654
 30
0.0
 11
523.1602547364209
 21
490.699024983659
 31
0.0
  0
LINE
  5
9B0
330
6F
100
AcDbEntity
  8
_0-0_0
  6
Continuous
 62
     7
100
AcDbLine
 10
503.160254736421
 20
490.699024983659
 30
0.0
 11
513.660254736417
 21
490.699024983659
 31
0.0
  0
LINE
  5
9B1
330
6F
100
AcDbEntity
  8
_0-0_0
  6
Continuous
 62
     7
100
AcDbLine
 10
533.1602547364136
 20
505.19902498366
 30
0.0
 11
493.1602547364209
 21
505.19902498366
 31
0.0
  0
LINE
  5
9B2
330
6F
100
AcDbEntity
  8
_0-0_0
  6
Continuous
 62
     7
100
AcDbLine
 10
512.6602547364136
 20
504.19902498366
 30
0.0
 11
493.1602547364209
 21
504.19902498366
 31
0.0
  0
LINE
  5
9B3
330
6F
100
AcDbEntity
  8
_0-0_0
  6
Continuous
 62
     7
100
AcDbLine
 10
493.1602547364209
 20
504.19902498366
 30
0.0
 11
493.1602547364209
 21
505.1990249836655
 31
0.0
  0
LINE
  5
9B4
330
6F
100
AcDbEntity
  8
_0-0_0
  6
Continuous
 62
     7
100
AcDbLine
 10
513.660254736417
 20
491.6990249836645
 30
0.0
 11
522.1602547364209
 21
491.6990249836645
 31
0.0
  0
LINE
  5
9B5
330
6F
100
AcDbEntity
  8
_0-0_0
  6
Continuous
 62
     7
100
AcDbLine
 10
503.160254736421
 20
492.69902498366
 30
0.0
 11
503.160254736421
 21
490.699024983659
 31
0.0
  0
LINE
  5
9B6
330
6F
100
AcDbEntity
  8
_0-0_0
  6
Continuous
 62
     7
100
AcDbLine
 10
522.160254736417
 20
492.69902498366
 30
0.0
 11
522.1602547364209
 21
491.69902498366
 31
0.0
  0
LINE
  5
9B7
330
6F
100
AcDbEntity
  8
_0-0_0
  6
Continuous
 62
     7
100
AcDbLine
 10
523.160254736417
 20
492.69902498366
 30
0.0
 11
522.160254736417
 21
492.69902498366
 31
0.0
  0
LINE
  5
9B8
330
6F
100
AcDbEntity
  8
_0-0_0
  6
Continuous
 62
     7
100
AcDbLine
 10
523.160254736417
 20
492.69902498366
 30
0.0
 11
523.160254736417
 21
490.699024983659
 31
0.0
  0
LINE
  5
9B9
330
6F
100
AcDbEntity
  8
_0-0_0
  6
Continuous
 62
     7
100
AcDbLine
 10
522.160254736417
 20
492.69902498366
 30
0.0
 11
523.160254736417
 21
492.69902498366
 31
0.0
  0
LINE
  5
9BA
330
6F
100
AcDbEntity
  8
_0-0_0
  6
Continuous
 62
     7
100
AcDbLine
 10
503.1602547364171
 20
492.69902498366
 30
0.0
 11
504.1602547364171
 21
492.69902498366
 31
0.0
  0
LINE
  5
9BB
330
6F
100
AcDbEntity
  8
_0-0_0
  6
Continuous
 62
     7
100
AcDbLine
 10
504.1602547364171
 20
492.69902498366
 30
0.0
 11
504.1602547364171
 21
491.69902498366
 31
0.0
  0
LINE
  5
9BC
330
6F
100
AcDbEntity
  8
_0-0_0
  6
Continuous
 62
     7
100
AcDbLine
 10
513.660254736417
 20
504.19902498366
 30
0.0
 11
533.1602547364136
 21
504.1990249836782
 31
0.0
  0
LINE
  5
9BD
330
6F
100
AcDbEntity
  8
_0-0_0
  6
Continuous
 62
     7
100
AcDbLine
 10
533.1602547364136
 20
504.19902498366
 30
0.0
 11
533.1602547364136
 21
505.1990249836655
 31
0.0
  0
LINE
  5
9BE
330
6F
100
AcDbEntity
  8
_0-0_0
  6
Continuous
 62
     7
100
AcDbLine
 10
513.660254736417
 20
491.69902498366
 30
0.0
 11
513.660254736417
 21
504.19902498366
 31
0.0
  0
LINE
  5
9BF
330
6F
100
AcDbEntity
  8
_0-0_0
  6
Continuous
 62
     7
100
AcDbLine
 10
512.6602547364136
 20
504.19902498366
 30
0.0
 11
512.6602547364136
 21
491.69902498366
 31
0.0
  0
INSERT
  5
9C0
330
6F
100
AcDbEntity
  8
_0-1_Ｓ
100
AcDbBlockReference
  2
-019-_U90
 10
-8671.840501174195
 20
7726.281440009268
 30
0.0
  0
INSERT
  5
9C1
330
6F
100
AcDbEntity
  8
_0-1_Ｓ
100
AcDbBlockReference
  2
-020-_U91
 10
-8671.840501174195
 20
7726.281440009268
 30
0.0
  0
INSERT
  5
9C2
330
6F
100
AcDbEntity
  8
_0-1_Ｓ
100
AcDbBlockReference
  2
-021-_U92
 10
-8687.239745779017
 20
7726.281440009268
 30
0.0
  0
INSERT
  5
9C3
330
6F
100
AcDbEntity
  8
_0-1_Ｓ
100
AcDbBlockReference
  2
-022-_U93
 10
-8687.239745779017
 20
7726.281440009268
 30
0.0
  0
INSERT
  5
9C4
330
6F
100
AcDbEntity
  8
_0-1_Ｓ
100
AcDbBlockReference
  2
-053-_D114
 10
-8983.190326279189
 20
7726.281440009268
 30
0.0
  0
INSERT
  5
9C5
330
6F
100
AcDbEntity
  8
_0-1_Ｓ
100
AcDbBlockReference
  2
-055-_D115
 10
-8983.190326279189
 20
7726.281440009268
 30
0.0
  0
LINE
  5
9C6
330
6F
100
AcDbEntity
  8
_1-0_S
  6
Continuous
 62
     5
100
AcDbLine
 10
410.8778938534887
 20
315.1805440138342
 30
0.0
 11
410.8778938534887
 21
314.7805440138972
 31
0.0
  0
LINE
  5
9C7
330
6F
100
AcDbEntity
  8
_1-0_S
  6
Continuous
 62
     5
100
AcDbLine
 10
454.1243040153439
 20
290.2122174659808
 30
0.0
 11
453.7778938538775
 21
290.0122174659992
 31
0.0
  0
ARC
  5
9C8
330
6F
100
AcDbEntity
  8
_1-0_S
  6
Continuous
 62
     5
100
AcDbCircle
 10
449.5243040162987
 20
298.1796511815546
 30
0.0
 40
0.4
100
AcDbArc
 50
120.0000000049341
 51
210.0000000049092
  0
INSERT
  5
9C9
330
6F
100
AcDbEntity
  8
_0-1_Ｓ
100
AcDbBlockReference
  2
-057-_D117
 10
-8951.146299244808
 20
7351.447201917197
 30
0.0
  0
ARC
  5
9CA
330
6F
100
AcDbEntity
  8
_1-0_S
  6
Continuous
 62
     5
100
AcDbCircle
 10
459.5701986982184
 20
303.9796511819541
 30
0.0
 40
0.4
100
AcDbArc
 50
30.00000000490918
 51
120.0000000049341
  0
LINE
  5
9CB
330
6F
100
AcDbEntity
  8
_1-0_S
  6
Continuous
 62
     5
100
AcDbLine
 10
459.5701986982184
 20
303.9796511819686
 30
0.0
 11
474.3701987005388
 21
278.3452992312941
 31
0.0
  0
LINE
  5
9CC
330
6F
100
AcDbEntity
  8
_1-0_S
  6
Continuous
 62
     5
100
AcDbLine
 10
474.3701987005388
 20
278.3452992312623
 30
0.0
 11
474.7166088620632
 21
278.5452992312293
 31
0.0
  0
LINE
  5
9CD
330
6F
100
AcDbEntity
  8
_1-0_S
  6
Continuous
 62
     5
100
AcDbLine
 10
459.9166088597176
 20
304.1796511819802
 30
0.0
 11
474.7166088620069
 21
278.545299231303
 31
0.0
  0
INSERT
  5
9CE
330
6F
100
AcDbEntity
  8
_0-1_Ｓ
100
AcDbBlockReference
  2
-059-_D118
 10
-8951.146299244808
 20
7351.447201917197
 30
0.0
  0
LINE
  5
9CF
330
6F
100
AcDbEntity
  8
_1-0_S
  6
Continuous
 62
     5
100
AcDbLine
 10
449.5243040162987
 20
298.1796511815246
 30
0.0
 11
459.5701986983713
 21
303.9796511817058
 31
0.0
  0
LINE
  5
9D0
330
6F
100
AcDbEntity
  8
_1-0_S
  6
Continuous
 62
     5
100
AcDbLine
 10
449.3243040162887
 20
298.52606134305
 30
0.0
 11
459.3702119670871
 21
304.3260690039124
 31
0.0
  0
ARC
  5
9D1
330
6F
100
AcDbEntity
  8
_1-0_S
  6
Continuous
 62
     5
100
AcDbCircle
 10
420.0778938535166
 20
315.1805440139051
 30
0.0
 40
0.4
100
AcDbArc
 50
270.0
 51
0.0
  0
ARC
  5
9D2
330
6F
100
AcDbEntity
  8
_1-0_S
  6
Continuous
 62
     5
100
AcDbCircle
 10
420.0778938535166
 20
326.7805440138691
 30
0.0
 40
0.4
100
AcDbArc
 50
0.0
 51
90.0
  0
LINE
  5
9D3
330
6F
100
AcDbEntity
  8
_1-0_S
  6
Continuous
 62
     5
100
AcDbLine
 10
420.0778938535166
 20
327.1805440138614
 30
0.0
 11
390.4778938535383
 21
327.1805440138178
 31
0.0
  0
LINE
  5
9D4
330
6F
100
AcDbEntity
  8
_1-0_S
  6
Continuous
 62
     5
100
AcDbLine
 10
420.4778938535127
 20
315.1805440139051
 30
0.0
 11
420.4778938535127
 21
326.7805440138691
 31
0.0
  0
LINE
  5
9D5
330
6F
100
AcDbEntity
  8
_1-0_S
  6
Continuous
 62
     5
100
AcDbLine
 10
439.1314836918554
 20
314.1805440138787
 30
0.0
 11
410.8778938534887
 21
314.1805440138633
 31
0.0
  0
LINE
  5
9D6
330
6F
100
AcDbEntity
  8
_1-0_S
  6
Continuous
 62
     5
100
AcDbLine
 10
390.4778938535128
 20
326.7805440138381
 30
0.0
 11
390.4778938534546
 21
327.1805440138341
 31
0.0
  0
LINE
  5
9D7
330
6F
100
AcDbEntity
  8
_1-0_S
  6
Continuous
 62
     5
100
AcDbLine
 10
420.0778938535022
 20
315.1805440138769
 30
0.0
 11
410.8778938534887
 21
315.1805440138342
 31
0.0
  0
LINE
  5
9D8
330
6F
100
AcDbEntity
  8
_1-0_S
  6
Continuous
 62
     5
100
AcDbLine
 10
420.0778938534857
 20
315.1805440138769
 30
0.0
 11
420.0778938535113
 21
326.7805440138691
 31
0.0
  0
LINE
  5
9D9
330
6F
100
AcDbEntity
  8
_1-0_S
  6
Continuous
 62
     5
100
AcDbLine
 10
420.0778938535022
 20
315.7805440138972
 30
0.0
 11
410.8778938534887
 21
315.7805440138691
 31
0.0
  0
ARC
  5
9DA
330
6F
100
AcDbEntity
  8
_1-0_S
  6
Continuous
 62
     5
100
AcDbCircle
 10
410.8778938534887
 20
314.9805440138789
 30
0.0
 40
0.7999999999883584
100
AcDbArc
 50
90.0
 51
270.0
  0
ARC
  5
9DB
330
6F
100
AcDbEntity
  8
_1-0_S
  6
Continuous
 62
     5
100
AcDbCircle
 10
410.8778938534887
 20
314.9805440138789
 30
0.0
 40
0.1999999999825377
100
AcDbArc
 50
90.0
 51
270.0
  0
LINE
  5
9DC
330
6F
100
AcDbEntity
  8
_1-0_S
  6
Continuous
 62
     5
100
AcDbLine
 10
420.0778938535478
 20
326.7805440138691
 30
0.0
 11
390.4778938535383
 21
326.7805440138254
 31
0.0
  0
ARC
  5
9DD
330
6F
100
AcDbEntity
  8
_1-0_S
  6
Continuous
 62
     5
100
AcDbCircle
 10
410.8778938534887
 20
314.9805440138507
 30
0.0
 40
0.199999999983335
100
AcDbArc
 50
90.0
 51
270.0
  0
ARC
  5
9DE
330
6F
100
AcDbEntity
  8
_1-0_S
  6
Continuous
 62
     5
100
AcDbCircle
 10
410.8778938534887
 20
314.9805440138507
 30
0.0
 40
0.199999999983335
100
AcDbArc
 50
90.0
 51
270.0
  0
LINE
  5
9DF
330
6F
100
AcDbEntity
  8
_1-0_S
  6
Continuous
 62
     5
100
AcDbLine
 10
439.1314836918827
 20
314.7805440140128
 30
0.0
 11
410.8778938534887
 21
314.7805440138682
 31
0.0
  0
ARC
  5
9E0
330
6F
100
AcDbEntity
  8
_1-0_S
  6
Continuous
 62
     5
100
AcDbCircle
 10
453.9510989345982
 20
290.1122174659604
 30
0.0
 40
0.199999999983335
100
AcDbArc
 50
210.0000000012261
 51
30.0000000012261
  0
ARC
  5
9E1
330
6F
100
AcDbEntity
  8
_1-0_S
  6
Continuous
 62
     5
100
AcDbCircle
 10
453.951098934609
 20
290.1122174659885
 30
0.0
 40
0.1999999999825377
100
AcDbArc
 50
210.0000000012261
 51
30.0000000012261
  0
ARC
  5
9E2
330
6F
100
AcDbEntity
  8
_1-0_S
  6
Continuous
 62
     5
100
AcDbCircle
 10
453.951098934609
 20
290.1122174659885
 30
0.0
 40
0.7999999999883584
100
AcDbArc
 50
210.0000000012261
 51
30.0000000012261
  0
LINE
  5
9E3
330
6F
100
AcDbEntity
  8
_1-0_S
  6
Continuous
 62
     5
100
AcDbLine
 10
450.0439192574194
 20
298.4796511809473
 30
0.0
 11
454.6439192576453
 21
290.5122174659836
 31
0.0
  0
LINE
  5
9E4
330
6F
100
AcDbEntity
  8
_1-0_S
  6
Continuous
 62
     5
100
AcDbLine
 10
449.5243040151526
 20
298.1796511808852
 30
0.0
 11
454.1243040153439
 21
290.2122174659672
 31
0.0
  0
LINE
  5
9E5
330
6F
100
AcDbEntity
  8
_1-0_S
  6
Continuous
 62
     5
100
AcDbLine
 10
439.13148369187
 20
314.1805440138787
 30
0.0
 11
453.2582786115908
 21
289.7122174659662
 31
0.0
  0
LINE
  5
9E6
330
6F
100
AcDbEntity
  8
_1-0_S
  6
Continuous
 62
     5
100
AcDbLine
 10
439.6510989341568
 20
314.4805440139389
 30
0.0
 11
453.7778938538631
 21
290.0122174659846
 31
0.0
  0
ARC
  5
9E7
330
6F
100
AcDbEntity
  8
_1-0_S
  6
Continuous
 62
     5
100
AcDbCircle
 10
453.9510989345982
 20
290.1122174659604
 30
0.0
 40
0.199999999983335
100
AcDbArc
 50
210.0000000012261
 51
30.0000000012261
  0
ARC
  5
9E8
330
6F
100
AcDbEntity
  8
_1-0_S
  6
Continuous
 62
     5
100
AcDbCircle
 10
439.1314836918827
 20
314.1805440139351
 30
0.0
 40
0.5999999999999999
100
AcDbArc
 50
30.00000000080453
 51
90.0
  0
INSERT
  5
9E9
330
6F
100
AcDbEntity
  8
_0-1_Ｓ
100
AcDbBlockReference
  2
-061-_D119
 10
-8951.146299244808
 20
7351.447201917197
 30
0.0
  0
INSERT
  5
9EA
330
6F
100
AcDbEntity
  8
_0-1_Ｓ
100
AcDbBlockReference
  2
-063-_D120
 10
-8951.146299244808
 20
7351.447201917197
 30
0.0
  0
INSERT
  5
9EB
330
6F
100
AcDbEntity
  8
_0-1_Ｓ
100
AcDbBlockReference
  2
-065-_D121
 10
-8951.146299244808
 20
7351.447201917197
 30
0.0
  0
INSERT
  5
9EC
330
6F
100
AcDbEntity
  8
_0-1_Ｓ
100
AcDbBlockReference
  2
-067-_D122
 10
-8951.146299244808
 20
7351.447201917197
 30
0.0
  0
INSERT
  5
9ED
330
6F
100
AcDbEntity
  8
_0-1_Ｓ
100
AcDbBlockReference
  2
-068-_D123
 10
-8951.146299244808
 20
7351.447201917197
 30
0.0
  0
INSERT
  5
9EE
330
6F
100
AcDbEntity
  8
_0-1_Ｓ
100
AcDbBlockReference
  2
-070-_D124
 10
-8231.062539795933
 20
7537.203940487673
 30
0.0
  0
LINE
  5
9EF
330
6F
100
AcDbEntity
  8
_1-0_S
  6
Continuous
 62
     5
100
AcDbLine
 10
708.7231212327878
 20
317.1489473206893
 30
0.0
 11
709.0695313942979
 21
316.9489473207077
 31
0.0
  0
ARC
  5
9F0
330
6F
100
AcDbEntity
  8
_1-0_S
  6
Continuous
 62
     5
100
AcDbCircle
 10
704.1128934873395
 20
309.1870288158079
 30
0.0
 40
0.4
100
AcDbArc
 50
239.9999999998989
 51
329.9999999999455
  0
INSERT
  5
9F1
330
6F
100
AcDbEntity
  8
_0-1_Ｓ
100
AcDbBlockReference
  2
-072-_D125
 10
-8231.062539795933
 20
7537.203940487673
 30
0.0
  0
ARC
  5
9F2
330
6F
100
AcDbEntity
  8
_1-0_S
  6
Continuous
 62
     5
100
AcDbCircle
 10
694.0770577685034
 20
314.9812212694997
 30
0.0
 40
0.4
100
AcDbArc
 50
149.9999999999441
 51
239.9999999998989
  0
LINE
  5
9F3
330
6F
100
AcDbEntity
  8
_1-0_S
  6
Continuous
 62
     5
100
AcDbLine
 10
704.1229524523933
 20
309.1812212696705
 30
0.0
 11
694.0770577685398
 21
314.9812212695524
 31
0.0
  0
LINE
  5
9F4
330
6F
100
AcDbEntity
  8
_1-0_S
  6
Continuous
 62
     5
100
AcDbLine
 10
703.9128934873406
 20
308.840618654287
 30
0.0
 11
693.87705776853
 21
314.6348111080224
 31
0.0
  0
LINE
  5
9F5
330
6F
100
AcDbEntity
  8
_1-0_S
  6
Continuous
 62
     5
100
AcDbLine
 10
694.0770577684925
 20
314.9812212694724
 30
0.0
 11
708.8770577683954
 21
340.6155732215621
 31
0.0
  0
LINE
  5
9F6
330
6F
100
AcDbEntity
  8
_1-0_S
  6
Continuous
 62
     5
100
AcDbLine
 10
708.8770577683954
 20
340.6155732215884
 30
0.0
 11
708.5306476069127
 21
340.8155732216319
 31
0.0
  0
LINE
  5
9F7
330
6F
100
AcDbEntity
  8
_1-0_S
  6
Continuous
 62
     5
100
AcDbLine
 10
693.7306476069952
 20
315.181221269484
 30
0.0
 11
708.5306476068817
 21
340.8155732215428
 31
0.0
  0
INSERT
  5
9F8
330
6F
100
AcDbEntity
  8
_0-1_Ｓ
100
AcDbBlockReference
  2
-074-_D126
 10
-8231.062539795933
 20
7537.203940487673
 30
0.0
  0
LINE
  5
9F9
330
6F
100
AcDbEntity
  8
_1-0_S
  6
Continuous
 62
     5
100
AcDbLine
 10
666.1695313943892
 20
292.5806207723363
 30
0.0
 11
666.1695313943892
 21
292.1806207723585
 31
0.0
  0
ARC
  5
9FA
330
6F
100
AcDbEntity
  8
_1-0_S
  6
Continuous
 62
     5
100
AcDbCircle
 10
675.3698689552093
 20
292.5922358647376
 30
0.0
 40
0.4
100
AcDbArc
 50
270.0
 51
0.0
  0
ARC
  5
9FB
330
6F
100
AcDbEntity
  8
_1-0_S
  6
Continuous
 62
     5
100
AcDbCircle
 10
675.3698689552093
 20
304.1922358646971
 30
0.0
 40
0.4
100
AcDbArc
 50
0.0
 51
90.0
  0
LINE
  5
9FC
330
6F
100
AcDbEntity
  8
_1-0_S
  6
Continuous
 62
     5
100
AcDbLine
 10
675.3698689551783
 20
292.5806207723926
 30
0.0
 11
675.369868955202
 21
304.1922358646971
 31
0.0
  0
LINE
  5
9FD
330
6F
100
AcDbEntity
  8
_1-0_S
  6
Continuous
 62
     5
100
AcDbLine
 10
675.7698689552035
 20
292.5922358647376
 30
0.0
 11
675.7698689552035
 21
304.1922358646971
 31
0.0
  0
LINE
  5
9FE
330
6F
100
AcDbEntity
  8
_1-0_S
  6
Continuous
 62
     5
100
AcDbLine
 10
675.3698689552384
 20
304.1922358646971
 30
0.0
 11
645.7698689552308
 21
304.1922358646571
 31
0.0
  0
LINE
  5
9FF
330
6F
100
AcDbEntity
  8
_1-0_S
  6
Continuous
 62
     5
100
AcDbLine
 10
645.769868955198
 20
304.1922358646707
 30
0.0
 11
645.7698689551435
 21
304.5922358646649
 31
0.0
  0
LINE
  5
A00
330
6F
100
AcDbEntity
  8
_1-0_S
  6
Continuous
 62
     5
100
AcDbLine
 10
675.3698689552093
 20
304.5922358646958
 30
0.0
 11
645.7698689552308
 21
304.5922358646512
 31
0.0
  0
INSERT
  5
A01
330
6F
100
AcDbEntity
  8
_0-1_Ｓ
100
AcDbBlockReference
  2
-076-_D127
 10
-8231.062539795933
 20
7537.203940487673
 30
0.0
  0
LINE
  5
A02
330
6F
100
AcDbEntity
  8
_1-0_S
  6
Continuous
 62
     5
100
AcDbLine
 10
675.3698689551783
 20
292.5806207723809
 30
0.0
 11
666.1695313943892
 21
292.5806207723363
 31
0.0
  0
LINE
  5
A03
330
6F
100
AcDbEntity
  8
_1-0_S
  6
Continuous
 62
     5
100
AcDbLine
 10
694.7695313943804
 20
292.1806207724603
 30
0.0
 11
666.1695313943892
 21
292.180620772373
 31
0.0
  0
ARC
  5
A04
330
6F
100
AcDbEntity
  8
_1-0_S
  6
Continuous
 62
     5
100
AcDbCircle
 10
666.1695313943892
 20
292.3806207723546
 30
0.0
 40
0.199999999983335
100
AcDbArc
 50
90.0
 51
270.0
  0
ARC
  5
A05
330
6F
100
AcDbEntity
  8
_1-0_S
  6
Continuous
 62
     5
100
AcDbCircle
 10
666.1695313943892
 20
292.3806207723546
 30
0.0
 40
0.199999999983335
100
AcDbArc
 50
90.0
 51
270.0
  0
LINE
  5
A06
330
6F
100
AcDbEntity
  8
_1-0_S
  6
Continuous
 62
     5
100
AcDbLine
 10
694.7695313943931
 20
291.5806207723954
 30
0.0
 11
666.1695313943892
 21
291.5806207723654
 31
0.0
  0
LINE
  5
A07
330
6F
100
AcDbEntity
  8
_1-0_S
  6
Continuous
 62
     5
100
AcDbLine
 10
675.3698689551911
 20
293.1806207723721
 30
0.0
 11
666.1695313943892
 21
293.1806207723721
 31
0.0
  0
ARC
  5
A08
330
6F
100
AcDbEntity
  8
_1-0_S
  6
Continuous
 62
     5
100
AcDbCircle
 10
666.1695313943892
 20
292.3806207723838
 30
0.0
 40
0.1999999999825377
100
AcDbArc
 50
90.0
 51
270.0
  0
ARC
  5
A09
330
6F
100
AcDbEntity
  8
_1-0_S
  6
Continuous
 62
     5
100
AcDbCircle
 10
666.1695313943892
 20
292.3806207723838
 30
0.0
 40
0.7999999999883584
100
AcDbArc
 50
90.0
 51
270.0
  0
LINE
  5
A0A
330
6F
100
AcDbEntity
  8
_1-0_S
  6
Continuous
 62
     5
100
AcDbLine
 10
704.1229524524787
 20
309.1812212696086
 30
0.0
 11
708.7231212329352
 21
317.1489473206321
 31
0.0
  0
LINE
  5
A0B
330
6F
100
AcDbEntity
  8
_1-0_S
  6
Continuous
 62
     5
100
AcDbLine
 10
703.6033372101901
 20
309.4812212696143
 30
0.0
 11
708.2035059906302
 21
317.4489473206504
 31
0.0
  0
ARC
  5
A0C
330
6F
100
AcDbEntity
  8
_1-0_S
  6
Continuous
 62
     5
100
AcDbCircle
 10
708.8963263136502
 20
317.0489473206262
 30
0.0
 40
0.7999999999883584
100
AcDbArc
 50
329.9999999999455
 51
149.9999999999441
  0
ARC
  5
A0D
330
6F
100
AcDbEntity
  8
_1-0_S
  6
Continuous
 62
     5
100
AcDbCircle
 10
708.8963263136502
 20
317.0489473206262
 30
0.0
 40
0.1999999999825377
100
AcDbArc
 50
329.9999999999455
 51
149.9999999999441
  0
LINE
  5
A0E
330
6F
100
AcDbEntity
  8
_1-0_S
  6
Continuous
 62
     5
100
AcDbLine
 10
695.2891466366691
 20
291.8806207723965
 30
0.0
 11
709.5891466366847
 21
316.648947320632
 31
0.0
  0
ARC
  5
A0F
330
6F
100
AcDbEntity
  8
_1-0_S
  6
Continuous
 62
     5
100
AcDbCircle
 10
708.8963263136792
 20
317.0489473206262
 30
0.0
 40
0.199999999983335
100
AcDbArc
 50
329.9999999999455
 51
149.9999999999441
  0
ARC
  5
A10
330
6F
100
AcDbEntity
  8
_1-0_S
  6
Continuous
 62
     5
100
AcDbCircle
 10
708.8963263136792
 20
317.0489473206262
 30
0.0
 40
0.199999999983335
100
AcDbArc
 50
329.9999999999455
 51
149.9999999999441
  0
LINE
  5
A11
330
6F
100
AcDbEntity
  8
_1-0_S
  6
Continuous
 62
     5
100
AcDbLine
 10
694.7695313943513
 20
292.1806207724603
 30
0.0
 11
709.0695313944142
 21
316.9489473206486
 31
0.0
  0
ARC
  5
A12
330
6F
100
AcDbEntity
  8
_1-0_S
  6
Continuous
 62
     5
100
AcDbCircle
 10
694.7695313943931
 20
292.180620772403
 30
0.0
 40
0.5999999999999999
100
AcDbArc
 50
270.0
 51
329.9999999999455
  0
INSERT
  5
A13
330
6F
100
AcDbEntity
  8
_0-1_Ｓ
100
AcDbBlockReference
  2
-078-_D128
 10
-8231.062539795933
 20
7537.203940487673
 30
0.0
  0
INSERT
  5
A14
330
6F
100
AcDbEntity
  8
_0-1_Ｓ
100
AcDbBlockReference
  2
-080-_D129
 10
-8231.062539795933
 20
7537.203940487673
 30
0.0
  0
INSERT
  5
A15
330
6F
100
AcDbEntity
  8
_0-1_Ｓ
100
AcDbBlockReference
  2
-081-_D130
 10
-8231.062539795933
 20
7537.203940487673
 30
0.0
  0
INSERT
  5
A40
330
6F
100
AcDbEntity
  8
_0-1_Ｓ
100
AcDbBlockReference
  2
-025-_U97
 10
-8458.230211723515
 20
7345.763037042747
 30
0.0
  0
INSERT
  5
A41
330
6F
100
AcDbEntity
  8
_0-1_Ｓ
100
AcDbBlockReference
  2
-026-_U98
 10
-8458.230211723515
 20
7345.763037042747
 30
0.0
  0
INSERT
  5
A42
330
6F
100
AcDbEntity
  8
_0-1_Ｓ
100
AcDbBlockReference
  2
-027-_U99
 10
-8458.230211723515
 20
7345.763037042747
 30
0.0
  0
INSERT
  5
A43
330
6F
100
AcDbEntity
  8
_0-1_Ｓ
100
AcDbBlockReference
  2
-028-_U100
 10
-8614.806731024572
 20
7347.799647050898
 30
0.0
  0
INSERT
  5
A44
330
6F
100
AcDbEntity
  8
_0-1_Ｓ
100
AcDbBlockReference
  2
-029-_U101
 10
-8614.806731024572
 20
7347.799647050898
 30
0.0
  0
INSERT
  5
A45
330
6F
100
AcDbEntity
  8
_0-1_Ｓ
100
AcDbBlockReference
  2
-030-_U102
 10
-8614.806731024572
 20
7347.799647050898
 30
0.0
  0
INSERT
  5
A46
330
6F
100
AcDbEntity
  8
_0-1_Ｓ
100
AcDbBlockReference
  2
-091-_D135
 10
-8759.363682384949
 20
7367.397386904546
 30
0.0
  0
INSERT
  5
A47
330
6F
100
AcDbEntity
  8
_0-1_Ｓ
100
AcDbBlockReference
  2
-093-_D136
 10
-8759.363682384949
 20
7367.397386904546
 30
0.0
  0
LINE
  5
A48
330
6F
100
AcDbEntity
  8
_0-0_0
  6
Continuous
 62
     7
100
AcDbLine
 10
283.1813927264065
 20
345.9434711556423
 30
0.0
 11
201.1813927264284
 21
345.9434711556287
 31
0.0
  0
LINE
  5
A49
330
6F
100
AcDbEntity
  8
_0-0_0
  6
Continuous
 62
     7
100
AcDbLine
 10
296.1813927264357
 20
328.443471155646
 30
0.0
 11
146.1813927264338
 21
328.443471155615
 31
0.0
  0
INSERT
  5
A4A
330
6F
100
AcDbEntity
  8
_0-1_Ｓ
100
AcDbBlockReference
  2
-095-_D137
 10
-8759.363682384949
 20
7367.397386904546
 30
0.0
  0
LINE
  5
A4B
330
6F
100
AcDbEntity
  8
_0-0_0
  6
Continuous
 62
     7
100
AcDbLine
 10
159.181392726432
 20
345.9434711556223
 30
0.0
 11
201.1813927264302
 21
345.9434711556287
 31
0.0
  0
CIRCLE
  5
A4C
330
6F
100
AcDbEntity
  8
_0-0_0
  6
Continuous
 62
     7
100
AcDbCircle
 10
161.2037425218841
 20
337.4434711556214
 30
0.0
 40
1.999999499999999
  0
CIRCLE
  5
A4D
330
6F
100
AcDbEntity
  8
_0-0_0
  6
Continuous
 62
     7
100
AcDbCircle
 10
161.1813927264301
 20
337.4434711556214
 30
0.0
 40
1.999999499999999
  0
CIRCLE
  5
A4E
330
6F
100
AcDbEntity
  8
_0-0_0
  6
Continuous
 62
     7
100
AcDbCircle
 10
161.1813927264301
 20
337.4434711556214
 30
0.0
 40
2.0
  0
LINE
  5
A4F
330
6F
100
AcDbEntity
  8
_0-0_0
  6
Continuous
 62
     7
100
AcDbLine
 10
149.1813927264302
 20
343.9434711556214
 30
0.0
 11
159.181392726432
 21
345.9434711556223
 31
0.0
  0
LINE
  5
A50
330
6F
100
AcDbEntity
  8
_0-0_0
  6
Continuous
 62
     7
100
AcDbLine
 10
146.1813927264338
 20
328.4434711556223
 30
0.0
 11
149.1813927264302
 21
343.9434711556214
 31
0.0
  0
CIRCLE
  5
A51
330
6F
100
AcDbEntity
  8
_0-0_0
  6
Continuous
 62
     7
100
AcDbCircle
 10
281.2037425218823
 20
337.4434711556214
 30
0.0
 40
1.999999499999999
  0
CIRCLE
  5
A52
330
6F
100
AcDbEntity
  8
_0-0_0
  6
Continuous
 62
     7
100
AcDbCircle
 10
281.181392726432
 20
337.4434711556351
 30
0.0
 40
2.0
  0
CIRCLE
  5
A53
330
6F
100
AcDbEntity
  8
_0-0_0
  6
Continuous
 62
     7
100
AcDbCircle
 10
281.181392726432
 20
337.4434711556351
 30
0.0
 40
1.999999499999999
  0
LINE
  5
A54
330
6F
100
AcDbEntity
  8
_0-0_0
  6
Continuous
 62
     7
100
AcDbLine
 10
293.1813927264302
 20
343.9434711556387
 30
0.0
 11
283.1813927264302
 21
345.9434711556359
 31
0.0
  0
LINE
  5
A55
330
6F
100
AcDbEntity
  8
_0-0_0
  6
Continuous
 62
     7
100
AcDbLine
 10
296.1813927264357
 20
328.4434711556396
 30
0.0
 11
293.1813927264302
 21
343.9434711556387
 31
0.0
  0
INSERT
  5
A56
330
6F
100
AcDbEntity
  8
_0-1_Ｓ
100
AcDbBlockReference
  2
-031-_U103
 10
-9073.436026887437
 20
7150.602320696795
 30
0.0
  0
ENDSEC
  0
SECTION
  2
OBJECTS
  0
DICTIONARY
  5
C
330
0
100
AcDbDictionary
281
     1
  3
ACAD_CIP_PREVIOUS_PRODUCT_INFO
350
A84
  3
ACAD_COLOR
350
62
  3
ACAD_DETAILVIEWSTYLE
350
69
  3
ACAD_GROUP
350
D
  3
ACAD_LAYOUT
350
61
  3
ACAD_MATERIAL
350
10
  3
ACAD_MLEADERSTYLE
350
65
  3
ACAD_MLINESTYLE
350
5E
  3
ACAD_PLOTSETTINGS
350
60
  3
ACAD_PLOTSTYLENAME
350
E
  3
ACAD_SCALELIST
350
42
  3
ACAD_SECTIONVIEWSTYLE
350
67
  3
ACAD_TABLESTYLE
350
63
  3
ACAD_VISUALSTYLE
350
29
  3
ACDB_RECOMPOSE_DATA
350
B57
  3
AcDbVariableDictionary
350
AAA
  3
AcDsDecomposeData
350
B5E
  3
DWGPROPS
350
B58
  0
DICTIONARY
  5
B35
330
2
100
AcDbDictionary
280
     1
281
     1
  3
ACAD_LAYERSTATES
360
B36
  0
DICTIONARY
  5
B0E
330
54
100
AcDbDictionary
280
     1
281
     1
  3
ADSK_XREC_LAYER_RECONCILED
360
B0F
  0
DICTIONARY
  5
B10
330
99
100
AcDbDictionary
280
     1
281
     1
  3
ADSK_XREC_LAYER_RECONCILED
360
B11
  0
DICTIONARY
  5
B12
330
9A
100
AcDbDictionary
280
     1
281
     1
  3
ADSK_XREC_LAYER_RECONCILED
360
B13
  0
DICTIONARY
  5
B14
330
9B
100
AcDbDictionary
280
     1
281
     1
  3
ADSK_XREC_LAYER_RECONCILED
360
B15
  0
DICTIONARY
  5
B16
330
9C
100
AcDbDictionary
280
     1
281
     1
  3
ADSK_XREC_LAYER_RECONCILED
360
B17
  0
DICTIONARY
  5
B18
330
9D
100
AcDbDictionary
280
     1
281
     1
  3
ADSK_XREC_LAYER_RECONCILED
360
B19
  0
DICTIONARY
  5
B1A
330
13B
100
AcDbDictionary
280
     1
281
     1
  3
ADSK_XREC_LAYER_RECONCILED
360
B1B
  0
DICTIONARY
  5
AB3
330
6F
100
AcDbDictionary
280
     1
281
     1
  3
ACAD_SORTENTS
360
AB4
  0
XRECORD
  5
A84
102
{ACAD_REACTORS
330
C
102
}
330
C
100
AcDbXrecord
280
     1
300
ACDLT
300
2014
300
ACDLT_F_S
  0
DICTIONARY
  5
62
102
{ACAD_REACTORS
330
C
102
}
330
C
100
AcDbDictionary
281
     1
  0
DICTIONARY
  5
69
102
{ACAD_REACTORS
330
C
102
}
330
C
100
AcDbDictionary
281
     1
  3
Imperial24
350
6A
  0
DICTIONARY
  5
D
102
{ACAD_REACTORS
330
C
102
}
330
C
100
AcDbDictionary
281
     1
  3
*A1
350
AA9
  3
*A2
350
AEC
  0
DICTIONARY
  5
61
102
{ACAD_REACTORS
330
C
102
}
330
C
100
AcDbDictionary
281
     1
  3
Model
350
72
  3
レイアウト1
350
6E
  0
DICTIONARY
  5
10
102
{ACAD_REACTORS
330
C
102
}
330
C
100
AcDbDictionary
281
     1
  3
ByBlock
350
19
  3
ByLayer
350
11
  3
Global
350
21
  0
DICTIONARY
  5
65
102
{ACAD_REACTORS
330
C
102
}
330
C
100
AcDbDictionary
281
     1
  3
Standard
350
66
  0
DICTIONARY
  5
5E
102
{ACAD_REACTORS
330
C
102
}
330
C
100
AcDbDictionary
281
     1
  3
Standard
350
5F
  0
DICTIONARY
  5
60
102
{ACAD_REACTORS
330
C
102
}
330
C
100
AcDbDictionary
281
     1
  0
ACDBDICTIONARYWDFLT
  5
E
102
{ACAD_REACTORS
330
C
102
}
330
C
100
AcDbDictionary
281
     1
  3
Normal
350
F
100
AcDbDictionaryWithDefault
340
F
  0
DICTIONARY
  5
42
102
{ACAD_REACTORS
330
C
102
}
330
C
100
AcDbDictionary
281
     1
  3
A0
350
43
  3
A1
350
44
  3
A2
350
45
  3
A3
350
46
  3
A4
350
47
  3
A5
350
48
  3
A6
350
49
  3
A7
350
4A
  3
A8
350
4B
  3
A9
350
4C
  3
B0
350
4D
  3
B1
350
4E
  3
B2
350
4F
  3
B3
350
50
  3
B4
350
51
  3
B5
350
52
  3
B6
350
53
  0
DICTIONARY
  5
67
102
{ACAD_REACTORS
330
C
102
}
330
C
100
AcDbDictionary
281
     1
  3
Imperial24
350
68
  0
DICTIONARY
  5
63
102
{ACAD_REACTORS
330
C
102
}
330
C
100
AcDbDictionary
281
     1
  3
Standard
350
64
  0
DICTIONARY
  5
29
102
{ACAD_REACTORS
330
C
102
}
330
C
100
AcDbDictionary
281
     1
  3
2dWireframe
350
2F
  3
Basic
350
2E
  3
Brighten
350
35
  3
ColorChange
350
39
  3
Conceptual
350
32
  3
Dim
350
34
  3
EdgeColorOff
350
41
  3
Facepattern
350
38
  3
Flat
350
2A
  3
FlatWithEdges
350
2B
  3
Gouraud
350
2C
  3
GouraudWithEdges
350
2D
  3
Hidden
350
31
  3
JitterOff
350
3F
  3
Linepattern
350
37
  3
OverhangOff
350
40
  3
Realistic
350
33
  3
Shaded
350
3E
  3
Shaded with edges
350
3D
  3
Shades of Gray
350
3A
  3
Sketchy
350
3B
  3
Thicken
350
36
  3
Wireframe
350
30
  3
X-Ray
350
3C
  0
XRECORD
  5
B57
102
{ACAD_REACTORS
330
C
102
}
330
C
100
AcDbXrecord
280
     1
 90
        1
330
64
  0
DICTIONARY
  5
AAA
102
{ACAD_REACTORS
330
C
102
}
330
C
100
AcDbDictionary
281
     1
  3
CANNOSCALE
350
B26
  3
CMLEADERSTYLE
350
B22
  3
CTABLESTYLE
350
B21
  3
CVIEWDETAILSTYLE
350
B23
  3
CVIEWSECTIONSTYLE
350
B24
  3
DIMASSOC
350
B53
  3
INDEXCTL
350
B52
  3
LAYEREVAL
350
B28
  3
LAYERNOTIFY
350
B29
  3
LIGHTINGUNITS
350
B27
  3
MSLTSCALE
350
B25
  3
SORTENTS
350
B51
  3
XCLIPFRAME
350
B54
  0
DICTIONARY
  5
B5E
102
{ACAD_REACTORS
330
C
102
}
330
C
100
AcDbDictionary
281
     1
  3
AcDsRecords
350
B60
  3
AcDsSchemas
350
B5F
1001
ACAD
1070
     2
  0
XRECORD
  5
B58
102
{ACAD_REACTORS
330
C
102
}
330
C
100
AcDbXrecord
280
     1
  1
DWGPROPS COOKIE
  2

  3

  4

  6

  7

  8
morison
  9

300
=
301
=
302
=
303
=
304
=
305
=
306
=
307
=
308
=
309
=
 40
0.0126105324074074
 41
2457962.730515243
 42
2458040.926408044
  1

 90
        0
  0
DICTIONARY
  5
B36
102
{ACAD_REACTORS
330
B35
102
}
330
B35
100
AcDbDictionary
281
     1
  0
XRECORD
  5
B0F
102
{ACAD_REACTORS
330
B0E
102
}
330
B0E
100
AcDbXrecord
280
     1
290
     1
  0
XRECORD
  5
B11
102
{ACAD_REACTORS
330
B10
102
}
330
B10
100
AcDbXrecord
280
     1
290
     1
  0
XRECORD
  5
B13
102
{ACAD_REACTORS
330
B12
102
}
330
B12
100
AcDbXrecord
280
     1
290
     1
  0
XRECORD
  5
B15
102
{ACAD_REACTORS
330
B14
102
}
330
B14
100
AcDbXrecord
280
     1
290
     1
  0
XRECORD
  5
B17
102
{ACAD_REACTORS
330
B16
102
}
330
B16
100
AcDbXrecord
280
     1
290
     1
  0
XRECORD
  5
B19
102
{ACAD_REACTORS
330
B18
102
}
330
B18
100
AcDbXrecord
280
     1
290
     1
  0
XRECORD
  5
B1B
102
{ACAD_REACTORS
330
B1A
102
}
330
B1A
100
AcDbXrecord
280
     1
290
     1
  0
SORTENTSTABLE
  5
AB4
102
{ACAD_REACTORS
330
AB3
102
}
330
AB3
100
AcDbSortentsTable
330
6F
331
9C4
  5
9C4
331
60D
  5
60D
331
9C5
  5
9C5
331
9C6
  5
9C6
331
9C7
  5
9C7
331
9A8
  5
9A8
331
9A9
  5
9A9
331
9C8
  5
9C8
331
9C9
  5
9C9
331
9AA
  5
9AA
331
9AB
  5
9AB
331
9CA
  5
9CA
331
9AC
  5
9AC
331
9CB
  5
9CB
331
9AD
  5
9AD
331
9CC
  5
9CC
331
9AE
  5
9AE
331
9CD
  5
9CD
331
9CE
  5
9CE
331
9AF
  5
9AF
331
9B0
  5
9B0
331
9CF
  5
9CF
331
9D0
  5
9D0
331
9B1
  5
9B1
331
9B2
  5
9B2
331
9D1
  5
9D1
331
9D2
  5
9D2
331
9B3
  5
9B3
331
9B4
  5
9B4
331
9D3
  5
9D3
331
9D4
  5
9D4
331
9B5
  5
9B5
331
9B6
  5
9B6
331
9D5
  5
9D5
331
9D6
  5
9D6
331
9B7
  5
9B7
331
9B8
  5
9B8
331
9D7
  5
9D7
331
9B9
  5
9B9
331
9BA
  5
9BA
331
9BB
  5
9BB
331
9BC
  5
9BC
331
9BD
  5
9BD
331
9BE
  5
9BE
331
9BF
  5
9BF
331
9D8
  5
9D8
331
9D9
  5
9D9
331
9F8
  5
9F8
331
9F9
  5
9F9
331
9DA
  5
9DA
331
9DB
  5
9DB
331
9FA
  5
9FA
331
A50
  5
A50
331
9FB
  5
9FB
331
9DC
  5
9DC
331
9DD
  5
9DD
331
9FC
  5
9FC
331
A51
  5
A51
331
A52
  5
A52
331
9FD
  5
9FD
331
9DE
  5
9DE
331
9DF
  5
9DF
331
9FE
  5
9FE
331
A53
  5
A53
331
A54
  5
A54
331
9FF
  5
9FF
331
9E0
  5
9E0
331
9E1
  5
9E1
331
A00
  5
A00
331
A55
  5
A55
331
A56
  5
A56
331
A01
  5
A01
331
9E2
  5
9E2
331
A40
  5
A40
331
9E3
  5
9E3
331
A02
  5
A02
331
A41
  5
A41
331
A03
  5
A03
331
9E4
  5
9E4
331
A42
  5
A42
331
9E5
  5
9E5
331
A04
  5
A04
331
A43
  5
A43
331
A05
  5
A05
331
9E6
  5
9E6
331
A44
  5
A44
331
9E7
  5
9E7
331
A06
  5
A06
331
A45
  5
A45
331
9E8
  5
9E8
331
A07
  5
A07
331
A46
  5
A46
331
9E9
  5
9E9
331
A08
  5
A08
331
A47
  5
A47
331
9EA
  5
9EA
331
A09
  5
A09
331
A0A
  5
A0A
331
9EB
  5
9EB
331
A48
  5
A48
331
A49
  5
A49
331
9EC
  5
9EC
331
A0B
  5
A0B
331
A0C
  5
A0C
331
9ED
  5
9ED
331
A4A
  5
A4A
331
A4B
  5
A4B
331
9EE
  5
9EE
331
A0D
  5
A0D
331
A0E
  5
A0E
331
9EF
  5
9EF
331
A4C
  5
A4C
331
396
  5
396
331
A4D
  5
A4D
331
9F0
  5
9F0
331
A0F
  5
A0F
331
A4E
  5
A4E
331
A10
  5
A10
331
9F1
  5
9F1
331
A4F
  5
A4F
331
9F2
  5
9F2
331
A11
  5
A11
331
A12
  5
A12
331
9F3
  5
9F3
331
9F4
  5
9F4
331
A13
  5
A13
331
37C
  5
37C
331
A14
  5
A14
331
9F5
  5
9F5
331
9F6
  5
9F6
331
A15
  5
A15
331
9C0
  5
9C0
331
9F7
  5
9F7
331
609
  5
609
331
9C1
  5
9C1
331
60A
  5
60A
331
9C2
  5
9C2
331
60B
  5
60B
331
9C3
  5
9C3
331
60C
  5
60C
  0
ACDBDETAILVIEWSTYLE
  5
6A
102
{ACAD_XDICTIONARY
360
B1E
102
}
102
{ACAD_REACTORS
330
69
102
}
330
69
100
AcDbModelDocViewStyle
 70
     0
  3
Imperial24
290
     0
100
AcDbDetailViewStyle
 70
     0
 71
     0
 90
        3
 71
     1
340
55
 40
0.24
340
0
 40
0.24
300

 40
0.36
280
     3
 71
     2
340
5C
 90
       25
 71
     3
340
55
 40
0.24
 90
        1
 40
0.75
 90
        1
300
%<\AcVar ViewType \f "%tc1">% %<\AcVar ViewDetailId>%\PSCALE %<\AcVar ViewScale \f "%sn">%
 71
     4
340
5C
 90
       25
340
5C
 90
       25
280
     0
  0
GROUP
  5
AA9
102
{ACAD_REACTORS
330
D
102
}
330
D
100
AcDbGroup
300

 70
     1
 71
     1
  0
GROUP
  5
AEC
102
{ACAD_REACTORS
330
D
102
}
330
D
100
AcDbGroup
300

 70
     1
 71
     1
  0
LAYOUT
  5
72
102
{ACAD_XDICTIONARY
360
B9A
102
}
102
{ACAD_REACTORS
330
61
102
}
330
61
100
AcDbPlotSettings
  1

  2
Color MultiWriter 9300C
  4
A4
  6

 40
4.857749938964843
 41
4.942390441894531
 42
4.942413330078125
 43
4.857757568359375
 44
209.9733276367187
 45
297.0106506347656
 46
0.0
 47
0.0
 48
0.0
 49
0.0
140
0.0
141
0.0
142
1.0
143
56.57424982883796
 70
 11952
 72
     0
 73
     1
 74
     0
  7

 75
     0
147
0.0176758861677431
148
-2368.324798089006
149
-5713.536839651345
100
AcDbLayout
  1
Model
 70
     1
 71
     0
 10
0.0
 20
0.0
 11
12.0
 21
9.0
 12
0.0
 22
0.0
 32
0.0
 14
0.0
 24
0.0
 34
0.0
 15
0.0
 25
0.0
 35
0.0
146
0.0
 13
0.0
 23
0.0
 33
0.0
 16
1.0
 26
0.0
 36
0.0
 17
0.0
 27
1.0
 37
0.0
 76
     0
330
6F
331
A0
1001
ACAD_PSEXT
1000
Color MultiWriter 9300C
1000
NEC Color MultiWriter 9300C
1000
120.1.1.82
1000

1070
     0
  0
LAYOUT
  5
6E
102
{ACAD_XDICTIONARY
360
B98
102
}
102
{ACAD_REACTORS
330
61
102
}
330
61
100
AcDbPlotSettings
  1

  2
Color MultiWriter 9300C
  4

  6

 40
0.0
 41
0.0
 42
0.0
 43
0.0
 44
0.0
 45
0.0
 46
0.0
 47
0.0
 48
0.0
 49
0.0
140
0.0
141
0.0
142
1.0
143
1.0
 70
   688
 72
     0
 73
     0
 74
     5
  7

 75
    16
147
1.0
148
0.0
149
0.0
100
AcDbLayout
  1
レイアウト1
 70
     1
 71
     1
 10
0.0
 20
0.0
 11
12.0
 21
9.0
 12
0.0
 22
0.0
 32
0.0
 14
1.000000000000000E+20
 24
1.000000000000000E+20
 34
1.000000000000000E+20
 15
-1.000000000000000E+20
 25
-1.000000000000000E+20
 35
-1.000000000000000E+20
146
0.0
 13
0.0
 23
0.0
 33
0.0
 16
1.0
 26
0.0
 36
0.0
 17
0.0
 27
1.0
 37
0.0
 76
     0
330
6B
  0
MATERIAL
  5
19
102
{ACAD_XDICTIONARY
360
1A
102
}
102
{ACAD_REACTORS
330
10
102
}
330
10
100
AcDbMaterial
  1
ByBlock
 72
     0
 43
0.0208333333333333
 43
0.0
 43
0.0
 43
0.0
 43
0.0
 43
0.0208333333333333
 43
0.0
 43
0.0
 43
0.0
 43
0.0
 43
1.0
 43
0.0
 43
0.0
 43
0.0
 43
0.0
 43
1.0
 77
     0
 47
0.0208333333333333
 47
0.0
 47
0.0
 47
0.0
 47
0.0
 47
0.0208333333333333
 47
0.0
 47
0.0
 47
0.0
 47
0.0
 47
1.0
 47
0.0
 47
0.0
 47
0.0
 47
0.0
 47
1.0
171
     0
 49
0.0208333333333333
 49
0.0
 49
0.0
 49
0.0
 49
0.0
 49
0.0208333333333333
 49
0.0
 49
0.0
 49
0.0
 49
0.0
 49
1.0
 49
0.0
 49
0.0
 49
0.0
 49
0.0
 49
1.0
175
     0
142
0.0208333333333333
142
0.0
142
0.0
142
0.0
142
0.0
142
0.0208333333333333
142
0.0
142
0.0
142
0.0
142
0.0
142
1.0
142
0.0
142
0.0
142
0.0
142
0.0
142
1.0
179
     0
144
0.0208333333333333
144
0.0
144
0.0
144
0.0
144
0.0
144
0.0208333333333333
144
0.0
144
0.0
144
0.0
144
0.0
144
1.0
144
0.0
144
0.0
144
0.0
144
0.0
144
1.0
147
0.0208333333333333
147
0.0
147
0.0
147
0.0
147
0.0
147
0.0208333333333333
147
0.0
147
0.0
147
0.0
147
0.0
147
1.0
147
0.0
147
0.0
147
0.0
147
0.0
147
1.0
  0
MATERIAL
  5
11
102
{ACAD_XDICTIONARY
360
12
102
}
102
{ACAD_REACTORS
330
10
102
}
330
10
100
AcDbMaterial
  1
ByLayer
 72
     0
 43
0.0208333333333333
 43
0.0
 43
0.0
 43
0.0
 43
0.0
 43
0.0208333333333333
 43
0.0
 43
0.0
 43
0.0
 43
0.0
 43
1.0
 43
0.0
 43
0.0
 43
0.0
 43
0.0
 43
1.0
 77
     0
 47
0.0208333333333333
 47
0.0
 47
0.0
 47
0.0
 47
0.0
 47
0.0208333333333333
 47
0.0
 47
0.0
 47
0.0
 47
0.0
 47
1.0
 47
0.0
 47
0.0
 47
0.0
 47
0.0
 47
1.0
171
     0
 49
0.0208333333333333
 49
0.0
 49
0.0
 49
0.0
 49
0.0
 49
0.0208333333333333
 49
0.0
 49
0.0
 49
0.0
 49
0.0
 49
1.0
 49
0.0
 49
0.0
 49
0.0
 49
0.0
 49
1.0
175
     0
142
0.0208333333333333
142
0.0
142
0.0
142
0.0
142
0.0
142
0.0208333333333333
142
0.0
142
0.0
142
0.0
142
0.0
142
1.0
142
0.0
142
0.0
142
0.0
142
0.0
142
1.0
179
     0
144
0.0208333333333333
144
0.0
144
0.0
144
0.0
144
0.0
144
0.0208333333333333
144
0.0
144
0.0
144
0.0
144
0.0
144
1.0
144
0.0
144
0.0
144
0.0
144
0.0
144
1.0
147
0.0208333333333333
147
0.0
147
0.0
147
0.0
147
0.0
147
0.0208333333333333
147
0.0
147
0.0
147
0.0
147
0.0
147
1.0
147
0.0
147
0.0
147
0.0
147
0.0
147
1.0
  0
MATERIAL
  5
21
102
{ACAD_XDICTIONARY
360
22
102
}
102
{ACAD_REACTORS
330
10
102
}
330
10
100
AcDbMaterial
  1
Global
 72
     0
 43
0.0208333333333333
 43
0.0
 43
0.0
 43
0.0
 43
0.0
 43
0.0208333333333333
 43
0.0
 43
0.0
 43
0.0
 43
0.0
 43
1.0
 43
0.0
 43
0.0
 43
0.0
 43
0.0
 43
1.0
 77
     0
 47
0.0208333333333333
 47
0.0
 47
0.0
 47
0.0
 47
0.0
 47
0.0208333333333333
 47
0.0
 47
0.0
 47
0.0
 47
0.0
 47
1.0
 47
0.0
 47
0.0
 47
0.0
 47
0.0
 47
1.0
171
     0
 49
0.0208333333333333
 49
0.0
 49
0.0
 49
0.0
 49
0.0
 49
0.0208333333333333
 49
0.0
 49
0.0
 49
0.0
 49
0.0
 49
1.0
 49
0.0
 49
0.0
 49
0.0
 49
0.0
 49
1.0
175
     0
142
0.0208333333333333
142
0.0
142
0.0
142
0.0
142
0.0
142
0.0208333333333333
142
0.0
142
0.0
142
0.0
142
0.0
142
1.0
142
0.0
142
0.0
142
0.0
142
0.0
142
1.0
179
     0
144
0.0208333333333333
144
0.0
144
0.0
144
0.0
144
0.0
144
0.0208333333333333
144
0.0
144
0.0
144
0.0
144
0.0
144
1.0
144
0.0
144
0.0
144
0.0
144
0.0
144
1.0
147
0.0208333333333333
147
0.0
147
0.0
147
0.0
147
0.0
147
0.0208333333333333
147
0.0
147
0.0
147
0.0
147
0.0
147
1.0
147
0.0
147
0.0
147
0.0
147
0.0
147
1.0
  0
MLEADERSTYLE
  5
66
102
{ACAD_REACTORS
330
65
102
}
330
65
100
AcDbMLeaderStyle
170
     2
171
     1
172
     0
 90
        2
 40
0.0
 41
0.0
173
     1
 91
-1056964608
340
5A
 92
       -2
290
     1
 42
0.09
291
     1
 43
0.36
  3
Standard
 44
0.18
300

342
55
174
     1
178
     6
175
     1
176
     0
 93
-1056964608
 45
0.18
292
     0
297
     0
 46
0.18
 94
-1056964608
 47
1.0
 49
1.0
140
1.0
293
     1
141
0.0
294
     1
177
     0
142
1.0
295
     0
296
     0
143
0.125
1001
ACAD_MLEADERVER
1070
     2
  0
MLINESTYLE
  5
5F
102
{ACAD_REACTORS
330
5E
102
}
330
5E
100
AcDbMlineStyle
  2
STANDARD
 70
     0
  3

 62
   256
 51
90.0
 52
90.0
 71
     2
 49
0.5
 62
   256
  6
BYLAYER
 49
-0.5
 62
   256
  6
BYLAYER
  0
ACDBPLACEHOLDER
  5
F
102
{ACAD_REACTORS
330
E
102
}
330
E
  0
SCALE
  5
43
102
{ACAD_REACTORS
330
42
102
}
330
42
100
AcDbScale
 70
     0
300
1:1
140
1.0
141
1.0
290
     1
  0
SCALE
  5
44
102
{ACAD_REACTORS
330
42
102
}
330
42
100
AcDbScale
 70
     0
300
1/128" = 1'-0"
140
0.0078125
141
12.0
290
     0
  0
SCALE
  5
45
102
{ACAD_REACTORS
330
42
102
}
330
42
100
AcDbScale
 70
     0
300
1/64" = 1'-0"
140
0.015625
141
12.0
290
     0
  0
SCALE
  5
46
102
{ACAD_REACTORS
330
42
102
}
330
42
100
AcDbScale
 70
     0
300
1/32" = 1'-0"
140
0.03125
141
12.0
290
     0
  0
SCALE
  5
47
102
{ACAD_REACTORS
330
42
102
}
330
42
100
AcDbScale
 70
     0
300
1/16" = 1'-0"
140
0.0625
141
12.0
290
     0
  0
SCALE
  5
48
102
{ACAD_REACTORS
330
42
102
}
330
42
100
AcDbScale
 70
     0
300
3/32" = 1'-0"
140
0.09375
141
12.0
290
     0
  0
SCALE
  5
49
102
{ACAD_REACTORS
330
42
102
}
330
42
100
AcDbScale
 70
     0
300
1/8" = 1'-0"
140
0.125
141
12.0
290
     0
  0
SCALE
  5
4A
102
{ACAD_REACTORS
330
42
102
}
330
42
100
AcDbScale
 70
     0
300
3/16" = 1'-0"
140
0.1875
141
12.0
290
     0
  0
SCALE
  5
4B
102
{ACAD_REACTORS
330
42
102
}
330
42
100
AcDbScale
 70
     0
300
1/4" = 1'-0"
140
0.25
141
12.0
290
     0
  0
SCALE
  5
4C
102
{ACAD_REACTORS
330
42
102
}
330
42
100
AcDbScale
 70
     0
300
3/8" = 1'-0"
140
0.375
141
12.0
290
     0
  0
SCALE
  5
4D
102
{ACAD_REACTORS
330
42
102
}
330
42
100
AcDbScale
 70
     0
300
1/2" = 1'-0"
140
0.5
141
12.0
290
     0
  0
SCALE
  5
4E
102
{ACAD_REACTORS
330
42
102
}
330
42
100
AcDbScale
 70
     0
300
3/4" = 1'-0"
140
0.75
141
12.0
290
     0
  0
SCALE
  5
4F
102
{ACAD_REACTORS
330
42
102
}
330
42
100
AcDbScale
 70
     0
300
1" = 1'-0"
140
1.0
141
12.0
290
     0
  0
SCALE
  5
50
102
{ACAD_REACTORS
330
42
102
}
330
42
100
AcDbScale
 70
     0
300
1-1/2" = 1'-0"
140
1.5
141
12.0
290
     0
  0
SCALE
  5
51
102
{ACAD_REACTORS
330
42
102
}
330
42
100
AcDbScale
 70
     0
300
3" = 1'-0"
140
3.0
141
12.0
290
     0
  0
SCALE
  5
52
102
{ACAD_REACTORS
330
42
102
}
330
42
100
AcDbScale
 70
     0
300
6" = 1'-0"
140
6.0
141
12.0
290
     0
  0
SCALE
  5
53
102
{ACAD_REACTORS
330
42
102
}
330
42
100
AcDbScale
 70
     0
300
1'-0" = 1'-0"
140
12.0
141
12.0
290
     0
  0
ACDBSECTIONVIEWSTYLE
  5
68
102
{ACAD_XDICTIONARY
360
B1C
102
}
102
{ACAD_REACTORS
330
67
102
}
330
67
100
AcDbModelDocViewStyle
 70
     0
  3
Imperial24
290
     0
100
AcDbSectionViewStyle
 70
     0
 71
     0
 90
       78
 71
     1
340
55
 40
0.24
340
0
340
0
 40
0.24
300
I, O, Q, S, X, Z
 40
0.48
 90
        3
 40
0.18
 90
        1
 71
     2
340
5C
 90
       25
340
5C
 90
       50
 40
0.24
 40
0.0
 40
0.24
 71
     3
340
55
 40
0.24
 90
        1
 40
0.75
 90
        1
300
%<\AcVar ViewType \f "%tc1">% %<\AcVar ViewSectionStartId>%-%<\AcVar ViewSectionEndId>%\PSCALE %<\AcVar ViewScale \f "%sn">%
 71
     4
300
ANSI31
 40
1.0
 90
        0
290
     0
290
     0
 90
        6
 40
0.0
 40
1.570796326794896
 40
0.2617993877991494
 40
1.308996938995747
 40
-0.2617993877991494
 40
1.832595714594046
  0
TABLESTYLE
  5
64
102
{ACAD_XDICTIONARY
360
B55
102
}
102
{ACAD_REACTORS
330
63
102
}
330
63
100
AcDbTableStyle
  3
Standard
 70
     0
 71
     0
 40
0.06
 41
0.06
280
     0
281
     0
  7
STANDARD
140
0.18
170
     2
 62
     0
 63
     7
283
     0
274
    -2
284
     1
 64
     0
275
    -2
285
     1
 65
     0
276
    -2
286
     1
 66
     0
277
    -2
287
     1
 67
     0
278
    -2
288
     1
 68
     0
279
    -2
289
     1
 69
     0
  7
STANDARD
140
0.25
170
     5
 62
     0
 63
     7
283
     0
274
    -2
284
     1
 64
     0
275
    -2
285
     1
 65
     0
276
    -2
286
     1
 66
     0
277
    -2
287
     1
 67
     0
278
    -2
288
     1
 68
     0
279
    -2
289
     1
 69
     0
  7
STANDARD
140
0.18
170
     5
 62
     0
 63
     7
283
     0
274
    -2
284
     1
 64
     0
275
    -2
285
     1
 65
     0
276
    -2
286
     1
 66
     0
277
    -2
287
     1
 67
     0
278
    -2
288
     1
 68
     0
279
    -2
289
     1
 69
     0
  0
VISUALSTYLE
  5
2F
102
{ACAD_XDICTIONARY
360
B6E
102
}
102
{ACAD_REACTORS
330
29
102
}
330
29
100
AcDbVisualStyle
  2
2dWireframe
 70
     4
 71
     0
 72
     2
 73
     0
 90
        0
 40
-0.6
 41
-30.0
 62
     5
 63
     7
 74
     1
 91
        4
 64
     7
 65
   257
 75
     1
175
     1
 42
1.0
 92
        0
 66
   257
 43
1.0
 76
     1
 77
     6
 78
     2
 67
     7
 79
     5
170
     0
171
     0
290
     0
174
     0
 93
        1
 44
0.0
173
     0
291
     0
 45
0.0
1001
ACAD
1000
AcDbSavedByObjectVersion
1070
     0
  0
VISUALSTYLE
  5
2E
102
{ACAD_XDICTIONARY
360
B6C
102
}
102
{ACAD_REACTORS
330
29
102
}
330
29
100
AcDbVisualStyle
  2
Basic
 70
     7
 71
     1
 72
     0
 73
     1
 90
        0
 40
-0.6
 41
-30.0
 62
     5
 63
     7
 74
     0
 91
        4
 64
     7
 65
   257
 75
     1
175
     1
 42
1.0
 92
        8
 66
     7
 43
1.0
 76
     1
 77
     6
 78
     2
 67
     7
 79
     5
170
     0
171
     0
290
     0
174
     0
 93
        1
 44
0.0
173
     0
291
     1
 45
0.0
1001
ACAD
1000
AcDbSavedByObjectVersion
1070
     0
  0
VISUALSTYLE
  5
35
102
{ACAD_XDICTIONARY
360
B7A
102
}
102
{ACAD_REACTORS
330
29
102
}
330
29
100
AcDbVisualStyle
  2
Brighten
 70
    12
 71
     2
 72
     2
 73
     0
 90
        0
 40
-0.6
 41
-30.0
 62
     5
 63
     7
 74
     1
 91
        4
 64
     7
 65
   257
 75
     1
175
     1
 42
1.0
 92
        8
 66
     7
 43
1.0
 76
     1
 77
     6
 78
     2
 67
     7
 79
     5
170
     0
171
     0
290
     0
174
     0
 93
        1
 44
50.0
173
     0
291
     1
 45
0.0
1001
ACAD
1000
AcDbSavedByObjectVersion
1070
     0
  0
VISUALSTYLE
  5
39
102
{ACAD_XDICTIONARY
360
B82
102
}
102
{ACAD_REACTORS
330
29
102
}
330
29
100
AcDbVisualStyle
  2
ColorChange
 70
    16
 71
     2
 72
     2
 73
     3
 90
        0
 40
-0.6
 41
-30.0
 62
     5
 63
     8
 74
     1
 91
        4
 64
     7
 65
   257
 75
     1
175
     1
 42
1.0
 92
        8
 66
     8
 43
1.0
 76
     1
 77
     6
 78
     2
 67
     7
 79
     5
170
     0
171
     0
290
     0
174
     0
 93
        1
 44
0.0
173
     0
291
     1
 45
0.0
1001
ACAD
1000
AcDbSavedByObjectVersion
1070
     0
  0
VISUALSTYLE
  5
32
102
{ACAD_XDICTIONARY
360
B74
102
}
102
{ACAD_REACTORS
330
29
102
}
330
29
100
AcDbVisualStyle
  2
Conceptual
 70
     9
 71
     3
 72
     2
 73
     0
 90
        0
 40
-0.6
 41
-30.0
 62
     5
 63
     7
 74
     2
 91
        2
 64
     7
 65
   257
 75
     1
175
     1
 42
179.0
 92
        8
 66
     7
 43
1.0
 76
     1
 77
     6
 78
     2
 67
     7
 79
     3
170
     0
171
     0
290
     0
174
     0
 93
        1
 44
0.0
173
     0
291
     0
 45
0.0
1001
ACAD
1000
AcDbSavedByObjectVersion
1070
     0
  0
VISUALSTYLE
  5
34
102
{ACAD_XDICTIONARY
360
B78
102
}
102
{ACAD_REACTORS
330
29
102
}
330
29
100
AcDbVisualStyle
  2
Dim
 70
    11
 71
     2
 72
     2
 73
     0
 90
        0
 40
-0.6
 41
-30.0
 62
     5
 63
     7
 74
     1
 91
        4
 64
     7
 65
   257
 75
     1
175
     1
 42
1.0
 92
        8
 66
     7
 43
1.0
 76
     1
 77
     6
 78
     2
 67
     7
 79
     5
170
     0
171
     0
290
     0
174
     0
 93
        1
 44
-50.0
173
     0
291
     1
 45
0.0
1001
ACAD
1000
AcDbSavedByObjectVersion
1070
     0
  0
VISUALSTYLE
  5
41
102
{ACAD_XDICTIONARY
360
B92
102
}
102
{ACAD_REACTORS
330
29
102
}
330
29
100
AcDbVisualStyle
  2
EdgeColorOff
 70
    22
 71
     2
 72
     2
 73
     0
 90
        0
 40
-0.6
 41
-30.0
 62
     5
 63
     7
 74
     1
 91
        4
 64
     7
 65
   257
 75
     1
175
     1
 42
1.0
 92
        8
 66
     7
 43
1.0
 76
     1
 77
     6
 78
     2
 67
     7
 79
     5
170
     0
171
     0
290
     0
174
     0
 93
        1
 44
0.0
173
     0
291
     1
 45
0.0
1001
ACAD
1000
AcDbSavedByObjectVersion
1070
     0
  0
VISUALSTYLE
  5
38
102
{ACAD_XDICTIONARY
360
B80
102
}
102
{ACAD_REACTORS
330
29
102
}
330
29
100
AcDbVisualStyle
  2
Facepattern
 70
    15
 71
     2
 72
     2
 73
     0
 90
        0
 40
-0.6
 41
-30.0
 62
     5
 63
     7
 74
     1
 91
        4
 64
     7
 65
   257
 75
     1
175
     1
 42
1.0
 92
        8
 66
     7
 43
1.0
 76
     1
 77
     6
 78
     2
 67
     7
 79
     5
170
     0
171
     0
290
     0
174
     0
 93
        1
 44
0.0
173
     0
291
     1
 45
0.0
1001
ACAD
1000
AcDbSavedByObjectVersion
1070
     0
  0
VISUALSTYLE
  5
2A
102
{ACAD_XDICTIONARY
360
B64
102
}
102
{ACAD_REACTORS
330
29
102
}
330
29
100
AcDbVisualStyle
  2
Flat
 70
     0
 71
     2
 72
     1
 73
     1
 90
        2
 40
-0.6
 41
30.0
 62
     5
 63
     7
 74
     0
 91
        0
 64
     7
 65
   257
 75
     1
175
     1
 42
1.0
 92
        8
 66
     7
 43
1.0
 76
     1
 77
     6
 78
     2
 67
     7
 79
     5
170
     0
171
     0
290
     0
174
     0
 93
       13
 44
0.0
173
     0
291
     1
 45
0.0
1001
ACAD
1000
AcDbSavedByObjectVersion
1070
     0
  0
VISUALSTYLE
  5
2B
102
{ACAD_XDICTIONARY
360
B66
102
}
102
{ACAD_REACTORS
330
29
102
}
330
29
100
AcDbVisualStyle
  2
FlatWithEdges
 70
     1
 71
     2
 72
     1
 73
     1
 90
        2
 40
-0.6
 41
30.0
 62
     5
 63
     7
 74
     1
 91
        0
 64
     7
 65
   257
 75
     1
175
     1
 42
1.0
 92
        0
 66
   257
 43
1.0
 76
     1
 77
     6
 78
     2
 67
     7
 79
     5
170
     0
171
     0
290
     0
174
     0
 93
       13
 44
0.0
173
     0
291
     1
 45
0.0
1001
ACAD
1000
AcDbSavedByObjectVersion
1070
     0
  0
VISUALSTYLE
  5
2C
102
{ACAD_XDICTIONARY
360
B68
102
}
102
{ACAD_REACTORS
330
29
102
}
330
29
100
AcDbVisualStyle
  2
Gouraud
 70
     2
 71
     2
 72
     2
 73
     1
 90
        2
 40
-0.6
 41
30.0
 62
     5
 63
     7
 74
     0
 91
        0
 64
     7
 65
   257
 75
     1
175
     1
 42
1.0
 92
        0
 66
     7
 43
1.0
 76
     1
 77
     6
 78
     2
 67
     7
 79
     5
170
     0
171
     0
290
     0
174
     0
 93
       13
 44
0.0
173
     0
291
     1
 45
0.0
1001
ACAD
1000
AcDbSavedByObjectVersion
1070
     0
  0
VISUALSTYLE
  5
2D
102
{ACAD_XDICTIONARY
360
B6A
102
}
102
{ACAD_REACTORS
330
29
102
}
330
29
100
AcDbVisualStyle
  2
GouraudWithEdges
 70
     3
 71
     2
 72
     2
 73
     1
 90
        2
 40
-0.6
 41
30.0
 62
     5
 63
     7
 74
     1
 91
        0
 64
     7
 65
   257
 75
     1
175
     1
 42
1.0
 92
        0
 66
   257
 43
1.0
 76
     1
 77
     6
 78
     2
 67
     7
 79
     5
170
     0
171
     0
290
     0
174
     0
 93
       13
 44
0.0
173
     0
291
     1
 45
0.0
1001
ACAD
1000
AcDbSavedByObjectVersion
1070
     0
  0
VISUALSTYLE
  5
31
102
{ACAD_XDICTIONARY
360
B72
102
}
102
{ACAD_REACTORS
330
29
102
}
330
29
100
AcDbVisualStyle
  2
Hidden
 70
     6
 71
     1
 72
     2
 73
     2
 90
        0
 40
-0.6
 41
-30.0
 62
     5
 63
     7
 74
     2
 91
        2
 64
     7
 65
   257
 75
     2
175
     1
 42
40.0
 92
        0
 66
   257
 43
1.0
 76
     1
 77
     6
 78
     2
 67
     7
 79
     3
170
     0
171
     0
290
     0
174
     0
 93
        1
 44
0.0
173
     0
291
     0
 45
0.0
1001
ACAD
1000
AcDbSavedByObjectVersion
1070
     0
  0
VISUALSTYLE
  5
3F
102
{ACAD_XDICTIONARY
360
B8E
102
}
102
{ACAD_REACTORS
330
29
102
}
330
29
100
AcDbVisualStyle
  2
JitterOff
 70
    20
 71
     2
 72
     2
 73
     0
 90
        0
 40
-0.6
 41
-30.0
 62
     5
 63
     7
 74
     1
 91
        4
 64
     7
 65
   257
 75
     1
175
     1
 42
1.0
 92
       10
 66
     7
 43
1.0
 76
     1
 77
     6
 78
     2
 67
     7
 79
     5
170
     0
171
     0
290
     0
174
     0
 93
        1
 44
0.0
173
     0
291
     1
 45
0.0
1001
ACAD
1000
AcDbSavedByObjectVersion
1070
     0
  0
VISUALSTYLE
  5
37
102
{ACAD_XDICTIONARY
360
B7E
102
}
102
{ACAD_REACTORS
330
29
102
}
330
29
100
AcDbVisualStyle
  2
Linepattern
 70
    14
 71
     2
 72
     2
 73
     0
 90
        0
 40
-0.6
 41
-30.0
 62
     5
 63
     7
 74
     1
 91
        4
 64
     7
 65
   257
 75
     7
175
     7
 42
1.0
 92
        8
 66
     7
 43
1.0
 76
     1
 77
     6
 78
     2
 67
     7
 79
     5
170
     0
171
     0
290
     0
174
     0
 93
        1
 44
0.0
173
     0
291
     1
 45
0.0
1001
ACAD
1000
AcDbSavedByObjectVersion
1070
     0
  0
VISUALSTYLE
  5
40
102
{ACAD_XDICTIONARY
360
B90
102
}
102
{ACAD_REACTORS
330
29
102
}
330
29
100
AcDbVisualStyle
  2
OverhangOff
 70
    21
 71
     2
 72
     2
 73
     0
 90
        0
 40
-0.6
 41
-30.0
 62
     5
 63
     7
 74
     1
 91
        4
 64
     7
 65
   257
 75
     1
175
     1
 42
1.0
 92
        9
 66
     7
 43
1.0
 76
     1
 77
     6
 78
     2
 67
     7
 79
     5
170
     0
171
     0
290
     0
174
     0
 93
        1
 44
0.0
173
     0
291
     1
 45
0.0
1001
ACAD
1000
AcDbSavedByObjectVersion
1070
     0
  0
VISUALSTYLE
  5
33
102
{ACAD_XDICTIONARY
360
B76
102
}
102
{ACAD_REACTORS
330
29
102
}
330
29
100
AcDbVisualStyle
  2
Realistic
 70
     8
 71
     2
 72
     3
 73
     0
 90
        2
 40
-0.6
 41
30.0
 62
     5
 63
     7
 74
     0
 91
        0
 64
     7
 65
   257
 75
     1
175
     1
 42
1.0
 92
        8
 66
   257
 43
1.0
 76
     1
 77
     6
 78
     2
 67
     7
 79
     3
170
     0
171
     0
290
     0
174
     0
 93
       13
 44
0.0
173
     0
291
     0
 45
0.0
1001
ACAD
1000
AcDbSavedByObjectVersion
1070
     0
  0
VISUALSTYLE
  5
3E
102
{ACAD_XDICTIONARY
360
B8C
102
}
102
{ACAD_REACTORS
330
29
102
}
330
29
100
AcDbVisualStyle
  2
Shaded
 70
    27
 71
     2
 72
     2
 73
     1
 90
        2
 40
-0.6
 41
30.0
 62
     5
 63
     7
 74
     0
 91
        4
 64
     7
 65
   257
 75
     1
175
     1
 42
1.0
 92
        8
 66
   257
 43
1.0
 76
     1
 77
     6
 78
     2
 67
     8
 79
     3
170
     0
171
     0
290
     0
174
     0
 93
        5
 44
0.0
173
     0
291
     0
 45
0.0
1001
ACAD
1000
AcDbSavedByObjectVersion
1070
     0
  0
VISUALSTYLE
  5
3D
102
{ACAD_XDICTIONARY
360
B8A
102
}
102
{ACAD_REACTORS
330
29
102
}
330
29
100
AcDbVisualStyle
  2
Shaded with edges
 70
    26
 71
     2
 72
     2
 73
     1
 90
        2
 40
-0.6
 41
30.0
 62
     5
 63
     7
 74
     1
 91
       10
 64
     7
 65
   257
 75
     2
175
     1
 42
1.0
 92
        8
 66
   257
 43
1.0
 76
     1
 77
     6
 78
     2
 67
     7
 79
     3
170
     0
171
     0
290
     0
174
     0
 93
        5
 44
0.0
173
     0
291
     0
 45
0.0
1001
ACAD
1000
AcDbSavedByObjectVersion
1070
     0
  0
VISUALSTYLE
  5
3A
102
{ACAD_XDICTIONARY
360
B84
102
}
102
{ACAD_REACTORS
330
29
102
}
330
29
100
AcDbVisualStyle
  2
Shades of Gray
 70
    23
 71
     2
 72
     2
 73
     3
 90
        0
 40
-0.6
 41
-30.0
 62
     5
 63
     7
 74
     2
 91
        2
 64
     7
 65
     7
 75
     1
175
     1
 42
40.0
 92
        8
 66
     7
 43
1.0
 76
     1
 77
     6
 78
     2
 67
     7
 79
     3
170
     0
171
     0
290
     0
174
     0
 93
        1
 44
0.0
173
     0
291
     0
 45
0.0
1001
ACAD
1000
AcDbSavedByObjectVersion
1070
     0
  0
VISUALSTYLE
  5
3B
102
{ACAD_XDICTIONARY
360
B86
102
}
102
{ACAD_REACTORS
330
29
102
}
330
29
100
AcDbVisualStyle
  2
Sketchy
 70
    24
 71
     1
 72
     2
 73
     2
 90
        0
 40
-0.6
 41
-30.0
 62
     5
 63
     7
 74
     2
 91
        2
 64
     7
 65
     7
 75
     1
175
     1
 42
40.0
 92
       11
 66
     7
 43
1.0
 76
     1
 77
     6
 78
     2
 67
     7
 79
     6
170
     0
171
     0
290
     0
174
     0
 93
        1
 44
0.0
173
     0
291
     0
 45
0.0
1001
ACAD
1000
AcDbSavedByObjectVersion
1070
     0
  0
VISUALSTYLE
  5
36
102
{ACAD_XDICTIONARY
360
B7C
102
}
102
{ACAD_REACTORS
330
29
102
}
330
29
100
AcDbVisualStyle
  2
Thicken
 70
    13
 71
     2
 72
     2
 73
     0
 90
        0
 40
-0.6
 41
-30.0
 62
     5
 63
     7
 74
     1
 91
        4
 64
     7
 65
   257
 75
     1
175
     1
 42
1.0
 92
       12
 66
     7
 43
1.0
 76
     1
 77
     6
 78
     2
 67
     7
 79
     5
170
     0
171
     0
290
     0
174
     0
 93
        1
 44
0.0
173
     0
291
     1
 45
0.0
1001
ACAD
1000
AcDbSavedByObjectVersion
1070
     0
  0
VISUALSTYLE
  5
30
102
{ACAD_XDICTIONARY
360
B70
102
}
102
{ACAD_REACTORS
330
29
102
}
330
29
100
AcDbVisualStyle
  2
Wireframe
 70
     5
 71
     0
 72
     2
 73
     0
 90
        0
 40
-0.6
 41
-30.0
 62
     5
 63
     7
 74
     1
 91
        4
 64
     7
 65
   257
 75
     1
175
     1
 42
1.0
 92
        0
 66
   257
 43
1.0
 76
     1
 77
     6
 78
     2
 67
     7
 79
     3
170
     0
171
     0
290
     0
174
     0
 93
        1
 44
0.0
173
     0
291
     0
 45
0.0
1001
ACAD
1000
AcDbSavedByObjectVersion
1070
     0
  0
VISUALSTYLE
  5
3C
102
{ACAD_XDICTIONARY
360
B88
102
}
102
{ACAD_REACTORS
330
29
102
}
330
29
100
AcDbVisualStyle
  2
X-Ray
 70
    25
 71
     2
 72
     2
 73
     1
 90
        1
 40
0.5
 41
-30.0
 62
     5
 63
     7
 74
     1
 91
        0
 64
     7
 65
   257
 75
     1
175
     1
 42
1.0
 92
        8
 66
     7
 43
1.0
 76
     1
 77
     6
 78
     2
 67
     7
 79
     3
170
     0
171
     0
290
     0
174
     0
 93
       13
 44
0.0
173
     0
291
     0
 45
0.0
1001
ACAD
1000
AcDbSavedByObjectVersion
1070
     0
  0
DICTIONARYVAR
  5
B26
102
{ACAD_REACTORS
330
AAA
102
}
330
AAA
100
DictionaryVariables
280
     0
  1
1:1
  0
DICTIONARYVAR
  5
B22
102
{ACAD_REACTORS
330
AAA
102
}
330
AAA
100
DictionaryVariables
280
     0
  1
STANDARD
  0
DICTIONARYVAR
  5
B21
102
{ACAD_REACTORS
330
AAA
102
}
330
AAA
100
DictionaryVariables
280
     0
  1
STANDARD
  0
DICTIONARYVAR
  5
B23
102
{ACAD_REACTORS
330
AAA
102
}
330
AAA
100
DictionaryVariables
280
     0
  1
Imperial24
  0
DICTIONARYVAR
  5
B24
102
{ACAD_REACTORS
330
AAA
102
}
330
AAA
100
DictionaryVariables
280
     0
  1
Imperial24
  0
DICTIONARYVAR
  5
B53
102
{ACAD_REACTORS
330
AAA
102
}
330
AAA
100
DictionaryVariables
280
     0
  1
1
  0
DICTIONARYVAR
  5
B52
102
{ACAD_REACTORS
330
AAA
102
}
330
AAA
100
DictionaryVariables
280
     0
  1
0
  0
DICTIONARYVAR
  5
B28
102
{ACAD_REACTORS
330
AAA
102
}
330
AAA
100
DictionaryVariables
280
     0
  1
1
  0
DICTIONARYVAR
  5
B29
102
{ACAD_REACTORS
330
AAA
102
}
330
AAA
100
DictionaryVariables
280
     0
  1
15
  0
DICTIONARYVAR
  5
B27
102
{ACAD_REACTORS
330
AAA
102
}
330
AAA
100
DictionaryVariables
280
     0
  1
0
  0
DICTIONARYVAR
  5
B25
102
{ACAD_REACTORS
330
AAA
102
}
330
AAA
100
DictionaryVariables
280
     0
  1
0
  0
DICTIONARYVAR
  5
B51
102
{ACAD_REACTORS
330
AAA
102
}
330
AAA
100
DictionaryVariables
280
     0
  1
127
  0
DICTIONARYVAR
  5
B54
102
{ACAD_REACTORS
330
AAA
102
}
330
AAA
100
DictionaryVariables
280
     0
  1
2
  0
DICTIONARY
  5
B60
102
{ACAD_REACTORS
330
B5E
102
}
330
B5E
100
AcDbDictionary
281
     1
  0
DICTIONARY
  5
B5F
102
{ACAD_REACTORS
330
B5E
102
}
330
B5E
100
AcDbDictionary
281
     1
  3
2129906824
350
B59
  3
2129906832
350
B5A
  3
2129906840
350
B5B
  3
2129906848
350
B5C
  3
2129906856
350
B5D
  0
DICTIONARY
  5
B1E
330
6A
100
AcDbDictionary
280
     1
281
     1
  3
ACAD_XREC_ROUNDTRIP
360
B97
  0
DICTIONARY
  5
B9A
330
72
100
AcDbDictionary
280
     1
281
     1
  3
ACAD_XREC_ROUNDTRIP
360
B9B
  0
DICTIONARY
  5
B98
330
6E
100
AcDbDictionary
280
     1
281
     1
  3
ACAD_XREC_ROUNDTRIP
360
B99
  0
DICTIONARY
  5
1A
330
19
100
AcDbDictionary
280
     1
281
     1
  3
ACAD_XREC_ROUNDTRIP
360
B62
  3
BUMPTILE
360
1C
  3
DIFFUSETILE
360
1B
  3
OPACITYTILE
360
1F
  3
REFLECTIONTILE
360
1E
  3
REFRACTIONTILE
360
20
  3
SPECULARTILE
360
1D
  0
DICTIONARY
  5
12
330
11
100
AcDbDictionary
280
     1
281
     1
  3
ACAD_XREC_ROUNDTRIP
360
B61
  3
BUMPTILE
360
14
  3
DIFFUSETILE
360
13
  3
OPACITYTILE
360
17
  3
REFLECTIONTILE
360
16
  3
REFRACTIONTILE
360
18
  3
SPECULARTILE
360
15
  0
DICTIONARY
  5
22
330
21
100
AcDbDictionary
280
     1
281
     1
  3
ACAD_XREC_ROUNDTRIP
360
B63
  3
BUMPTILE
360
24
  3
DIFFUSETILE
360
23
  3
OPACITYTILE
360
27
  3
REFLECTIONTILE
360
26
  3
REFRACTIONTILE
360
28
  3
SPECULARTILE
360
25
  0
DICTIONARY
  5
B1C
330
68
100
AcDbDictionary
280
     1
281
     1
  3
ACAD_XREC_ROUNDTRIP
360
B96
  0
DICTIONARY
  5
B55
330
64
100
AcDbDictionary
280
     1
281
     1
  3
ACAD_ROUNDTRIP_2008_TABLESTYLE_CELLSTYLEMAP
360
B56
  3
ACAD_XREC_ROUNDTRIP
360
B94
  0
DICTIONARY
  5
B6E
330
2F
100
AcDbDictionary
280
     1
281
     1
  3
ACAD_XREC_ROUNDTRIP
360
B6F
  0
DICTIONARY
  5
B6C
330
2E
100
AcDbDictionary
280
     1
281
     1
  3
ACAD_XREC_ROUNDTRIP
360
B6D
  0
DICTIONARY
  5
B7A
330
35
100
AcDbDictionary
280
     1
281
     1
  3
ACAD_XREC_ROUNDTRIP
360
B7B
  0
DICTIONARY
  5
B82
330
39
100
AcDbDictionary
280
     1
281
     1
  3
ACAD_XREC_ROUNDTRIP
360
B83
  0
DICTIONARY
  5
B74
330
32
100
AcDbDictionary
280
     1
281
     1
  3
ACAD_XREC_ROUNDTRIP
360
B75
  0
DICTIONARY
  5
B78
330
34
100
AcDbDictionary
280
     1
281
     1
  3
ACAD_XREC_ROUNDTRIP
360
B79
  0
DICTIONARY
  5
B92
330
41
100
AcDbDictionary
280
     1
281
     1
  3
ACAD_XREC_ROUNDTRIP
360
B93
  0
DICTIONARY
  5
B80
330
38
100
AcDbDictionary
280
     1
281
     1
  3
ACAD_XREC_ROUNDTRIP
360
B81
  0
DICTIONARY
  5
B64
330
2A
100
AcDbDictionary
280
     1
281
     1
  3
ACAD_XREC_ROUNDTRIP
360
B65
  0
DICTIONARY
  5
B66
330
2B
100
AcDbDictionary
280
     1
281
     1
  3
ACAD_XREC_ROUNDTRIP
360
B67
  0
DICTIONARY
  5
B68
330
2C
100
AcDbDictionary
280
     1
281
     1
  3
ACAD_XREC_ROUNDTRIP
360
B69
  0
DICTIONARY
  5
B6A
330
2D
100
AcDbDictionary
280
     1
281
     1
  3
ACAD_XREC_ROUNDTRIP
360
B6B
  0
DICTIONARY
  5
B72
330
31
100
AcDbDictionary
280
     1
281
     1
  3
ACAD_XREC_ROUNDTRIP
360
B73
  0
DICTIONARY
  5
B8E
330
3F
100
AcDbDictionary
280
     1
281
     1
  3
ACAD_XREC_ROUNDTRIP
360
B8F
  0
DICTIONARY
  5
B7E
330
37
100
AcDbDictionary
280
     1
281
     1
  3
ACAD_XREC_ROUNDTRIP
360
B7F
  0
DICTIONARY
  5
B90
330
40
100
AcDbDictionary
280
     1
281
     1
  3
ACAD_XREC_ROUNDTRIP
360
B91
  0
DICTIONARY
  5
B76
330
33
100
AcDbDictionary
280
     1
281
     1
  3
ACAD_XREC_ROUNDTRIP
360
B77
  0
DICTIONARY
  5
B8C
330
3E
100
AcDbDictionary
280
     1
281
     1
  3
ACAD_XREC_ROUNDTRIP
360
B8D
  0
DICTIONARY
  5
B8A
330
3D
100
AcDbDictionary
280
     1
281
     1
  3
ACAD_XREC_ROUNDTRIP
360
B8B
  0
DICTIONARY
  5
B84
330
3A
100
AcDbDictionary
280
     1
281
     1
  3
ACAD_XREC_ROUNDTRIP
360
B85
  0
DICTIONARY
  5
B86
330
3B
100
AcDbDictionary
280
     1
281
     1
  3
ACAD_XREC_ROUNDTRIP
360
B87
  0
DICTIONARY
  5
B7C
330
36
100
AcDbDictionary
280
     1
281
     1
  3
ACAD_XREC_ROUNDTRIP
360
B7D
  0
DICTIONARY
  5
B70
330
30
100
AcDbDictionary
280
     1
281
     1
  3
ACAD_XREC_ROUNDTRIP
360
B71
  0
DICTIONARY
  5
B88
330
3C
100
AcDbDictionary
280
     1
281
     1
  3
ACAD_XREC_ROUNDTRIP
360
B89
  0
XRECORD
  5
B59
102
{ACAD_REACTORS
330
B5F
102
}
330
B5F
100
AcDbXrecord
280
     1
  1
AcDb_Thumbnail_Schema
102
{ATTRRECORD
341
B5A
  2
AcDbDs::TreatedAsObjectData
280
     1
291
     1
102
ATTRRECORD}
102
{ATTRRECORD
341
B5B
  2
AcDbDs::Legacy
280
     1
291
     1
102
ATTRRECORD}
  2
AcDbDs::ID
280
    10
 91
        8
102
{ATTRRECORD
341
B5C
  2
AcDs:Indexable
280
     1
291
     1
102
ATTRRECORD}
102
{ATTRRECORD
341
B5D
  2
AcDbDs::HandleAttribute
280
     7
282
     1
102
ATTRRECORD}
  2
Thumbnail_Data
280
    15
 91
        0
  0
XRECORD
  5
B5A
102
{ACAD_REACTORS
330
B5F
102
}
330
B5F
100
AcDbXrecord
280
     1
  1
AcDbDs::TreatedAsObjectDataSchema
  2
AcDbDs::TreatedAsObjectData
280
     1
 91
        0
  0
XRECORD
  5
B5B
102
{ACAD_REACTORS
330
B5F
102
}
330
B5F
100
AcDbXrecord
280
     1
  1
AcDbDs::LegacySchema
  2
AcDbDs::Legacy
280
     1
 91
        0
  0
XRECORD
  5
B5C
102
{ACAD_REACTORS
330
B5F
102
}
330
B5F
100
AcDbXrecord
280
     1
  1
AcDbDs::IndexedPropertySchema
  2
AcDs:Indexable
280
     1
 91
        0
  0
XRECORD
  5
B5D
102
{ACAD_REACTORS
330
B5F
102
}
330
B5F
100
AcDbXrecord
280
     1
  1
AcDbDs::HandleAttributeSchema
  2
AcDbDs::HandleAttribute
280
     7
 91
        1
284
     1
  0
XRECORD
  5
B97
102
{ACAD_REACTORS
330
B1E
102
}
330
B1E
100
AcDbXrecord
280
     1
102
DISPLAYNAME
  1
Imperial24
102
FLAGS
 90
        0
  0
XRECORD
  5
B9B
102
{ACAD_REACTORS
330
B9A
102
}
330
B9A
100
AcDbXrecord
280
     1
102
SHADEPLOT
 70
     0
102
SHADEPLOTRESLEVEL
 70
     2
102
SHADEPLOTCUSTOMDPI
 70
   300
  0
XRECORD
  5
B99
102
{ACAD_REACTORS
330
B98
102
}
330
B98
100
AcDbXrecord
280
     1
102
SHADEPLOT
 70
     0
102
SHADEPLOTRESLEVEL
 70
     2
102
SHADEPLOTCUSTOMDPI
 70
   300
  0
XRECORD
  5
B62
102
{ACAD_REACTORS
330
1A
102
}
330
1A
100
AcDbXrecord
280
     1
102
MATERIAL
148
0.0
149
0.0
149
0.0
 93
        0
 94
      127
282
     0
 72
     0
 77
     0
171
     0
175
     0
179
     0
273
     0
  0
XRECORD
  5
1C
102
{ACAD_REACTORS
330
1A
102
}
330
1A
100
AcDbXrecord
280
     1
270
     1
271
     1
  0
XRECORD
  5
1B
102
{ACAD_REACTORS
330
1A
102
}
330
1A
100
AcDbXrecord
280
     1
270
     1
271
     1
  0
XRECORD
  5
1F
102
{ACAD_REACTORS
330
1A
102
}
330
1A
100
AcDbXrecord
280
     1
270
     1
271
     1
  0
XRECORD
  5
1E
102
{ACAD_REACTORS
330
1A
102
}
330
1A
100
AcDbXrecord
280
     1
270
     1
271
     1
  0
XRECORD
  5
20
102
{ACAD_REACTORS
330
1A
102
}
330
1A
100
AcDbXrecord
280
     1
270
     1
271
     1
  0
XRECORD
  5
1D
102
{ACAD_REACTORS
330
1A
102
}
330
1A
100
AcDbXrecord
280
     1
270
     1
271
     1
  0
XRECORD
  5
B61
102
{ACAD_REACTORS
330
12
102
}
330
12
100
AcDbXrecord
280
     1
102
MATERIAL
148
0.0
149
0.0
149
0.0
 93
        0
 94
      127
282
     0
 72
     0
 77
     0
171
     0
175
     0
179
     0
273
     0
  0
XRECORD
  5
14
102
{ACAD_REACTORS
330
12
102
}
330
12
100
AcDbXrecord
280
     1
270
     1
271
     1
  0
XRECORD
  5
13
102
{ACAD_REACTORS
330
12
102
}
330
12
100
AcDbXrecord
280
     1
270
     1
271
     1
  0
XRECORD
  5
17
102
{ACAD_REACTORS
330
12
102
}
330
12
100
AcDbXrecord
280
     1
270
     1
271
     1
  0
XRECORD
  5
16
102
{ACAD_REACTORS
330
12
102
}
330
12
100
AcDbXrecord
280
     1
270
     1
271
     1
  0
XRECORD
  5
18
102
{ACAD_REACTORS
330
12
102
}
330
12
100
AcDbXrecord
280
     1
270
     1
271
     1
  0
XRECORD
  5
15
102
{ACAD_REACTORS
330
12
102
}
330
12
100
AcDbXrecord
280
     1
270
     1
271
     1
  0
XRECORD
  5
B63
102
{ACAD_REACTORS
330
22
102
}
330
22
100
AcDbXrecord
280
     1
102
MATERIAL
148
0.0
149
0.0
149
0.0
 93
        0
 94
      127
282
     0
 72
     0
 77
     0
171
     0
175
     0
179
     0
273
     0
  0
XRECORD
  5
24
102
{ACAD_REACTORS
330
22
102
}
330
22
100
AcDbXrecord
280
     1
270
     1
271
     1
  0
XRECORD
  5
23
102
{ACAD_REACTORS
330
22
102
}
330
22
100
AcDbXrecord
280
     1
270
     1
271
     1
  0
XRECORD
  5
27
102
{ACAD_REACTORS
330
22
102
}
330
22
100
AcDbXrecord
280
     1
270
     1
271
     1
  0
XRECORD
  5
26
102
{ACAD_REACTORS
330
22
102
}
330
22
100
AcDbXrecord
280
     1
270
     1
271
     1
  0
XRECORD
  5
28
102
{ACAD_REACTORS
330
22
102
}
330
22
100
AcDbXrecord
280
     1
270
     1
271
     1
  0
XRECORD
  5
25
102
{ACAD_REACTORS
330
22
102
}
330
22
100
AcDbXrecord
280
     1
270
     1
271
     1
  0
XRECORD
  5
B96
102
{ACAD_REACTORS
330
B1C
102
}
330
B1C
100
AcDbXrecord
280
     1
102
DISPLAYNAME
  1
Imperial24
102
FLAGS
 90
        0
  0
CELLSTYLEMAP
  5
B56
102
{ACAD_REACTORS
330
B55
102
}
330
B55
100
AcDbCellStyleMap
 90
        3
300
CELLSTYLE
  1
TABLEFORMAT_BEGIN
 90
        5
170
     1
 91
        0
 92
    32768
 62
   257
 93
        1
300
CONTENTFORMAT
  1
CONTENTFORMAT_BEGIN
 90
        0
 91
        0
 92
      512
 93
        0
300

 40
0.0
140
1.0
 94
        5
 62
     0
340
55
144
0.25
309
CONTENTFORMAT_END
171
     0
 94
        0
309
TABLEFORMAT_END
  1
CELLSTYLE_BEGIN
 90
        1
 91
        1
300
_TITLE
309
CELLSTYLE_END
300
CELLSTYLE
  1
TABLEFORMAT_BEGIN
 90
        5
170
     1
 91
        0
 92
        0
 62
   257
 93
        1
300
CONTENTFORMAT
  1
CONTENTFORMAT_BEGIN
 90
        0
 91
        0
 92
      512
 93
        0
300

 40
0.0
140
1.0
 94
        5
 62
     0
340
55
144
0.18
309
CONTENTFORMAT_END
171
     0
 94
        0
309
TABLEFORMAT_END
  1
CELLSTYLE_BEGIN
 90
        2
 91
        1
300
_HEADER
309
CELLSTYLE_END
300
CELLSTYLE
  1
TABLEFORMAT_BEGIN
 90
        5
170
     1
 91
        0
 92
        0
 62
   257
 93
        1
300
CONTENTFORMAT
  1
CONTENTFORMAT_BEGIN
 90
        0
 91
        0
 92
      512
 93
        0
300

 40
0.0
140
1.0
 94
        2
 62
     0
340
55
144
0.18
309
CONTENTFORMAT_END
171
     0
 94
        0
309
TABLEFORMAT_END
  1
CELLSTYLE_BEGIN
 90
        3
 91
        2
300
_DATA
309
CELLSTYLE_END
  0
XRECORD
  5
B94
102
{ACAD_REACTORS
330
B55
102
}
330
B55
100
AcDbXrecord
280
     1
102
ACAD_ROUNDTRIP_PRE2007_TABLESTYLE
 90
      512
 91
        0
  1

 92
      512
 93
        0
  2

 94
      512
 95
        0
  3

  0
XRECORD
  5
B6F
102
{ACAD_REACTORS
330
B6E
102
}
330
B6E
100
AcDbXrecord
280
     1
102
RTVSPost2010Prop28
280
     1
102
RTVSPost2010PropOp28
 70
     1
102
RTVSPost2010Prop29
280
     1
102
RTVSPost2010PropOp29
 70
     1
102
RTVSPost2010Prop30
280
     0
102
RTVSPost2010PropOp30
 70
     1
102
RTVSPost2010Prop31
280
     0
102
RTVSPost2010PropOp31
 70
     1
102
RTVSPost2010Prop32
280
     0
102
RTVSPost2010PropOp32
 70
     1
102
RTVSPost2010Prop33
280
     0
102
RTVSPost2010PropOp33
 70
     1
102
RTVSPost2010Prop34
280
     0
102
RTVSPost2010PropOp34
 70
     1
102
RTVSPost2010Prop35
280
     0
102
RTVSPost2010PropOp35
 70
     1
102
RTVSPost2010Prop36
280
     0
102
RTVSPost2010PropOp36
 70
     1
102
RTVSPost2010Prop37
 90
       50
102
RTVSPost2010PropOp37
 70
     1
102
RTVSPost2010Prop38
140
0.0
102
RTVSPost2010PropOp38
 70
     1
102
RTVSPost2010Prop39
140
1.0
102
RTVSPost2010PropOp39
 70
     1
102
RTVSPost2010Prop40
 90
        0
102
RTVSPost2010PropOp40
 70
     1
102
RTVSPost2010Prop41ColorIndex
 90
       18
102
RTVSPost2010Prop41ColorRGB
 90
        0
102
RTVSPost2010PropOp41
 70
     1
102
RTVSPost2010Prop42
 90
       50
102
RTVSPost2010PropOp42
 70
     1
102
RTVSPost2010Prop43
 90
        3
102
RTVSPost2010PropOp43
 70
     1
102
RTVSPost2010Prop44ColorIndex
 90
        5
102
RTVSPost2010Prop44ColorRGB
 90
      255
102
RTVSPost2010PropOp44
 70
     1
102
RTVSPost2010Prop45
280
     0
102
RTVSPost2010PropOp45
 70
     1
102
RTVSPost2010Prop46
 90
       50
102
RTVSPost2010PropOp46
 70
     1
102
RTVSPost2010Prop47
 90
       50
102
RTVSPost2010PropOp47
 70
     1
102
RTVSPost2010Prop48
 90
       50
102
RTVSPost2010PropOp48
 70
     1
102
RTVSPost2010Prop49
280
     0
102
RTVSPost2010PropOp49
 70
     1
102
RTVSPost2010Prop50
 90
       50
102
RTVSPost2010PropOp50
 70
     1
102
RTVSPost2010Prop51ColorIndex
 90
      256
102
RTVSPost2010Prop51ColorRGB
 90
-16777216
102
RTVSPost2010PropOp51
 70
     0
102
RTVSPost2010Prop52
140
1.0
102
RTVSPost2010PropOp52
 70
     0
102
RTVSPost2010Prop53
 90
        2
102
RTVSPost2010PropOp53
 70
     1
102
RTVSPost2010Prop54
  1
strokes_ogs.tif
102
RTVSPost2010PropOp54
 70
     1
102
RTVSPost2010Prop55
280
     0
102
RTVSPost2010PropOp55
 70
     1
102
RTVSPost2010Prop56
140
1.0
102
RTVSPost2010PropOp56
 70
     1
102
RTVSPost2010Prop57
140
1.0
102
RTVSPost2010PropOp57
 70
     1
102
RTVSPropertyOp0
 70
     1
102
RTVSPropertyOp1
 70
     1
102
RTVSPropertyOp2
 70
     1
102
RTVSPropertyOp3
 70
     1
102
RTVSPropertyOp4
 70
     1
102
RTVSPropertyOp5
 70
     1
102
RTVSPropertyOp6
 70
     1
102
RTVSPropertyOp7
 70
     1
102
RTVSPropertyOp8
 70
     1
102
RTVSPropertyOp9
 70
     1
102
RTVSPropertyOp10
 70
     1
102
RTVSPropertyOp11
 70
     1
102
RTVSPropertyOp12
 70
     1
102
RTVSPropertyOp13
 70
     1
102
RTVSPropertyOp14
 70
     1
102
RTVSPropertyOp15
 70
     1
102
RTVSPropertyOp16
 70
     1
102
RTVSPropertyOp17
 70
     1
102
RTVSPropertyOp18
 70
     1
102
RTVSPropertyOp19
 70
     1
102
RTVSPropertyOp20
 70
     1
102
RTVSPropertyOp21
 70
     1
102
RTVSPropertyOp22
 70
     1
102
RTVSPropertyOp23
 70
     1
102
RTVSPropertyOp24
 70
     1
102
RTVSPropertyOp25
 70
     1
102
RTVSPropertyOp26
 70
     1
102
RTVSPropertyOp27
 70
     1
102
RTVSPropertyOp28
 70
     1
102
RTVSPropertyOp29
 70
     1
102
RTVSPropertyOp30
 70
     1
102
RTVSPropertyOp31
 70
     1
102
RTVSPropertyOp32
 70
     1
102
RTVSPropertyOp33
 70
     1
102
RTVSPropertyOp34
 70
     1
102
RTVSPropertyOp35
 70
     1
102
RTVSPropertyOp36
 70
     1
102
RTVSPropertyOp37
 70
     1
102
RTVSPropertyOp38
 70
     1
102
RTVSPropertyOp39
 70
     1
102
RTVSPropertyOp40
 70
     1
102
RTVSPropertyOp41
 70
     1
102
RTVSPropertyOp42
 70
     1
102
RTVSPropertyOp43
 70
     1
102
RTVSPropertyOp44
 70
     1
102
RTVSPropertyOp45
 70
     1
102
RTVSPropertyOp46
 70
     1
102
RTVSPropertyOp47
 70
     1
102
RTVSPropertyOp48
 70
     1
102
RTVSPropertyOp49
 70
     1
102
RTVSPropertyOp50
 70
     1
102
RTVSPropertyOp51
 70
     0
102
RTVSPropertyOp52
 70
     0
102
RTVSPropertyOp53
 70
     1
102
RTVSPropertyOp54
 70
     1
102
RTVSPropertyOp55
 70
     1
102
RTVSPropertyOp56
 70
     1
102
RTVSPropertyOp57
 70
     1
102
RTVSPropertyOp58
 70
     1
102
RTVSPropertyOp59
 70
     1
102
RTVSPropertyOp60
 70
     1
102
RTVSPropertyOp61
 70
     1
102
RTVSPropertyOp62
 70
     1
  0
XRECORD
  5
B6D
102
{ACAD_REACTORS
330
B6C
102
}
330
B6C
100
AcDbXrecord
280
     1
102
RTVSPost2010Prop28
280
     0
102
RTVSPost2010PropOp28
 70
     1
102
RTVSPost2010Prop29
280
     1
102
RTVSPost2010PropOp29
 70
     1
102
RTVSPost2010Prop30
280
     1
102
RTVSPost2010PropOp30
 70
     1
102
RTVSPost2010Prop31
280
     0
102
RTVSPost2010PropOp31
 70
     1
102
RTVSPost2010Prop32
280
     0
102
RTVSPost2010PropOp32
 70
     1
102
RTVSPost2010Prop33
280
     0
102
RTVSPost2010PropOp33
 70
     1
102
RTVSPost2010Prop34
280
     0
102
RTVSPost2010PropOp34
 70
     1
102
RTVSPost2010Prop35
280
     0
102
RTVSPost2010PropOp35
 70
     1
102
RTVSPost2010Prop36
280
     0
102
RTVSPost2010PropOp36
 70
     1
102
RTVSPost2010Prop37
 90
       50
102
RTVSPost2010PropOp37
 70
     1
102
RTVSPost2010Prop38
140
0.0
102
RTVSPost2010PropOp38
 70
     1
102
RTVSPost2010Prop39
140
1.0
102
RTVSPost2010PropOp39
 70
     1
102
RTVSPost2010Prop40
 90
        0
102
RTVSPost2010PropOp40
 70
     1
102
RTVSPost2010Prop41ColorIndex
 90
       18
102
RTVSPost2010Prop41ColorRGB
 90
        0
102
RTVSPost2010PropOp41
 70
     1
102
RTVSPost2010Prop42
 90
       50
102
RTVSPost2010PropOp42
 70
     1
102
RTVSPost2010Prop43
 90
        3
102
RTVSPost2010PropOp43
 70
     1
102
RTVSPost2010Prop44ColorIndex
 90
        5
102
RTVSPost2010Prop44ColorRGB
 90
      255
102
RTVSPost2010PropOp44
 70
     1
102
RTVSPost2010Prop45
280
     0
102
RTVSPost2010PropOp45
 70
     1
102
RTVSPost2010Prop46
 90
       50
102
RTVSPost2010PropOp46
 70
     1
102
RTVSPost2010Prop47
 90
       50
102
RTVSPost2010PropOp47
 70
     1
102
RTVSPost2010Prop48
 90
       50
102
RTVSPost2010PropOp48
 70
     1
102
RTVSPost2010Prop49
280
     0
102
RTVSPost2010PropOp49
 70
     1
102
RTVSPost2010Prop50
 90
       50
102
RTVSPost2010PropOp50
 70
     1
102
RTVSPost2010Prop51ColorIndex
 90
      256
102
RTVSPost2010Prop51ColorRGB
 90
-16777216
102
RTVSPost2010PropOp51
 70
     0
102
RTVSPost2010Prop52
140
1.0
102
RTVSPost2010PropOp52
 70
     0
102
RTVSPost2010Prop53
 90
        2
102
RTVSPost2010PropOp53
 70
     1
102
RTVSPost2010Prop54
  1
strokes_ogs.tif
102
RTVSPost2010PropOp54
 70
     1
102
RTVSPost2010Prop55
280
     0
102
RTVSPost2010PropOp55
 70
     1
102
RTVSPost2010Prop56
140
1.0
102
RTVSPost2010PropOp56
 70
     1
102
RTVSPost2010Prop57
140
1.0
102
RTVSPost2010PropOp57
 70
     1
102
RTVSPropertyOp0
 70
     1
102
RTVSPropertyOp1
 70
     1
102
RTVSPropertyOp2
 70
     1
102
RTVSPropertyOp3
 70
     1
102
RTVSPropertyOp4
 70
     1
102
RTVSPropertyOp5
 70
     1
102
RTVSPropertyOp6
 70
     1
102
RTVSPropertyOp7
 70
     1
102
RTVSPropertyOp8
 70
     1
102
RTVSPropertyOp9
 70
     1
102
RTVSPropertyOp10
 70
     1
102
RTVSPropertyOp11
 70
     1
102
RTVSPropertyOp12
 70
     1
102
RTVSPropertyOp13
 70
     1
102
RTVSPropertyOp14
 70
     1
102
RTVSPropertyOp15
 70
     1
102
RTVSPropertyOp16
 70
     1
102
RTVSPropertyOp17
 70
     1
102
RTVSPropertyOp18
 70
     1
102
RTVSPropertyOp19
 70
     1
102
RTVSPropertyOp20
 70
     1
102
RTVSPropertyOp21
 70
     1
102
RTVSPropertyOp22
 70
     1
102
RTVSPropertyOp23
 70
     1
102
RTVSPropertyOp24
 70
     1
102
RTVSPropertyOp25
 70
     1
102
RTVSPropertyOp26
 70
     1
102
RTVSPropertyOp27
 70
     1
102
RTVSPropertyOp28
 70
     1
102
RTVSPropertyOp29
 70
     1
102
RTVSPropertyOp30
 70
     1
102
RTVSPropertyOp31
 70
     1
102
RTVSPropertyOp32
 70
     1
102
RTVSPropertyOp33
 70
     1
102
RTVSPropertyOp34
 70
     1
102
RTVSPropertyOp35
 70
     1
102
RTVSPropertyOp36
 70
     1
102
RTVSPropertyOp37
 70
     1
102
RTVSPropertyOp38
 70
     1
102
RTVSPropertyOp39
 70
     1
102
RTVSPropertyOp40
 70
     1
102
RTVSPropertyOp41
 70
     1
102
RTVSPropertyOp42
 70
     1
102
RTVSPropertyOp43
 70
     1
102
RTVSPropertyOp44
 70
     1
102
RTVSPropertyOp45
 70
     1
102
RTVSPropertyOp46
 70
     1
102
RTVSPropertyOp47
 70
     1
102
RTVSPropertyOp48
 70
     1
102
RTVSPropertyOp49
 70
     1
102
RTVSPropertyOp50
 70
     1
102
RTVSPropertyOp51
 70
     0
102
RTVSPropertyOp52
 70
     0
102
RTVSPropertyOp53
 70
     1
102
RTVSPropertyOp54
 70
     1
102
RTVSPropertyOp55
 70
     1
102
RTVSPropertyOp56
 70
     1
102
RTVSPropertyOp57
 70
     1
102
RTVSPropertyOp58
 70
     1
102
RTVSPropertyOp59
 70
     1
102
RTVSPropertyOp60
 70
     1
102
RTVSPropertyOp61
 70
     1
102
RTVSPropertyOp62
 70
     1
  0
XRECORD
  5
B7B
102
{ACAD_REACTORS
330
B7A
102
}
330
B7A
100
AcDbXrecord
280
     1
102
RTVSPost2010Prop28
280
     0
102
RTVSPost2010PropOp28
 70
     1
102
RTVSPost2010Prop29
280
     1
102
RTVSPost2010PropOp29
 70
     1
102
RTVSPost2010Prop30
280
     1
102
RTVSPost2010PropOp30
 70
     1
102
RTVSPost2010Prop31
280
     0
102
RTVSPost2010PropOp31
 70
     1
102
RTVSPost2010Prop32
280
     0
102
RTVSPost2010PropOp32
 70
     1
102
RTVSPost2010Prop33
280
     0
102
RTVSPost2010PropOp33
 70
     1
102
RTVSPost2010Prop34
280
     0
102
RTVSPost2010PropOp34
 70
     1
102
RTVSPost2010Prop35
280
     0
102
RTVSPost2010PropOp35
 70
     1
102
RTVSPost2010Prop36
280
     0
102
RTVSPost2010PropOp36
 70
     1
102
RTVSPost2010Prop37
 90
       50
102
RTVSPost2010PropOp37
 70
     1
102
RTVSPost2010Prop38
140
0.0
102
RTVSPost2010PropOp38
 70
     1
102
RTVSPost2010Prop39
140
1.0
102
RTVSPost2010PropOp39
 70
     1
102
RTVSPost2010Prop40
 90
        0
102
RTVSPost2010PropOp40
 70
     1
102
RTVSPost2010Prop41ColorIndex
 90
       18
102
RTVSPost2010Prop41ColorRGB
 90
        0
102
RTVSPost2010PropOp41
 70
     1
102
RTVSPost2010Prop42
 90
       50
102
RTVSPost2010PropOp42
 70
     1
102
RTVSPost2010Prop43
 90
        3
102
RTVSPost2010PropOp43
 70
     1
102
RTVSPost2010Prop44ColorIndex
 90
        5
102
RTVSPost2010Prop44ColorRGB
 90
      255
102
RTVSPost2010PropOp44
 70
     1
102
RTVSPost2010Prop45
280
     0
102
RTVSPost2010PropOp45
 70
     1
102
RTVSPost2010Prop46
 90
       50
102
RTVSPost2010PropOp46
 70
     1
102
RTVSPost2010Prop47
 90
       50
102
RTVSPost2010PropOp47
 70
     1
102
RTVSPost2010Prop48
 90
       50
102
RTVSPost2010PropOp48
 70
     1
102
RTVSPost2010Prop49
280
     0
102
RTVSPost2010PropOp49
 70
     1
102
RTVSPost2010Prop50
 90
       50
102
RTVSPost2010PropOp50
 70
     1
102
RTVSPost2010Prop51ColorIndex
 90
      256
102
RTVSPost2010Prop51ColorRGB
 90
-16777216
102
RTVSPost2010PropOp51
 70
     0
102
RTVSPost2010Prop52
140
1.0
102
RTVSPost2010PropOp52
 70
     0
102
RTVSPost2010Prop53
 90
        2
102
RTVSPost2010PropOp53
 70
     1
102
RTVSPost2010Prop54
  1
strokes_ogs.tif
102
RTVSPost2010PropOp54
 70
     1
102
RTVSPost2010Prop55
280
     0
102
RTVSPost2010PropOp55
 70
     1
102
RTVSPost2010Prop56
140
1.0
102
RTVSPost2010PropOp56
 70
     1
102
RTVSPost2010Prop57
140
1.0
102
RTVSPost2010PropOp57
 70
     1
102
RTVSPropertyOp0
 70
     1
102
RTVSPropertyOp1
 70
     1
102
RTVSPropertyOp2
 70
     1
102
RTVSPropertyOp3
 70
     1
102
RTVSPropertyOp4
 70
     1
102
RTVSPropertyOp5
 70
     1
102
RTVSPropertyOp6
 70
     1
102
RTVSPropertyOp7
 70
     1
102
RTVSPropertyOp8
 70
     1
102
RTVSPropertyOp9
 70
     1
102
RTVSPropertyOp10
 70
     1
102
RTVSPropertyOp11
 70
     1
102
RTVSPropertyOp12
 70
     1
102
RTVSPropertyOp13
 70
     1
102
RTVSPropertyOp14
 70
     1
102
RTVSPropertyOp15
 70
     1
102
RTVSPropertyOp16
 70
     1
102
RTVSPropertyOp17
 70
     1
102
RTVSPropertyOp18
 70
     1
102
RTVSPropertyOp19
 70
     1
102
RTVSPropertyOp20
 70
     1
102
RTVSPropertyOp21
 70
     1
102
RTVSPropertyOp22
 70
     1
102
RTVSPropertyOp23
 70
     1
102
RTVSPropertyOp24
 70
     1
102
RTVSPropertyOp25
 70
     1
102
RTVSPropertyOp26
 70
     1
102
RTVSPropertyOp27
 70
     1
102
RTVSPropertyOp28
 70
     1
102
RTVSPropertyOp29
 70
     1
102
RTVSPropertyOp30
 70
     1
102
RTVSPropertyOp31
 70
     1
102
RTVSPropertyOp32
 70
     1
102
RTVSPropertyOp33
 70
     1
102
RTVSPropertyOp34
 70
     1
102
RTVSPropertyOp35
 70
     1
102
RTVSPropertyOp36
 70
     1
102
RTVSPropertyOp37
 70
     1
102
RTVSPropertyOp38
 70
     1
102
RTVSPropertyOp39
 70
     1
102
RTVSPropertyOp40
 70
     1
102
RTVSPropertyOp41
 70
     1
102
RTVSPropertyOp42
 70
     1
102
RTVSPropertyOp43
 70
     1
102
RTVSPropertyOp44
 70
     1
102
RTVSPropertyOp45
 70
     1
102
RTVSPropertyOp46
 70
     1
102
RTVSPropertyOp47
 70
     1
102
RTVSPropertyOp48
 70
     1
102
RTVSPropertyOp49
 70
     1
102
RTVSPropertyOp50
 70
     1
102
RTVSPropertyOp51
 70
     0
102
RTVSPropertyOp52
 70
     0
102
RTVSPropertyOp53
 70
     1
102
RTVSPropertyOp54
 70
     1
102
RTVSPropertyOp55
 70
     1
102
RTVSPropertyOp56
 70
     1
102
RTVSPropertyOp57
 70
     1
102
RTVSPropertyOp58
 70
     1
102
RTVSPropertyOp59
 70
     1
102
RTVSPropertyOp60
 70
     1
102
RTVSPropertyOp61
 70
     1
102
RTVSPropertyOp62
 70
     1
  0
XRECORD
  5
B83
102
{ACAD_REACTORS
330
B82
102
}
330
B82
100
AcDbXrecord
280
     1
102
RTVSPost2010Prop28
280
     0
102
RTVSPost2010PropOp28
 70
     1
102
RTVSPost2010Prop29
280
     1
102
RTVSPost2010PropOp29
 70
     1
102
RTVSPost2010Prop30
280
     1
102
RTVSPost2010PropOp30
 70
     1
102
RTVSPost2010Prop31
280
     0
102
RTVSPost2010PropOp31
 70
     1
102
RTVSPost2010Prop32
280
     0
102
RTVSPost2010PropOp32
 70
     1
102
RTVSPost2010Prop33
280
     0
102
RTVSPost2010PropOp33
 70
     1
102
RTVSPost2010Prop34
280
     0
102
RTVSPost2010PropOp34
 70
     1
102
RTVSPost2010Prop35
280
     0
102
RTVSPost2010PropOp35
 70
     1
102
RTVSPost2010Prop36
280
     0
102
RTVSPost2010PropOp36
 70
     1
102
RTVSPost2010Prop37
 90
       50
102
RTVSPost2010PropOp37
 70
     1
102
RTVSPost2010Prop38
140
0.0
102
RTVSPost2010PropOp38
 70
     1
102
RTVSPost2010Prop39
140
1.0
102
RTVSPost2010PropOp39
 70
     1
102
RTVSPost2010Prop40
 90
        0
102
RTVSPost2010PropOp40
 70
     1
102
RTVSPost2010Prop41ColorIndex
 90
       18
102
RTVSPost2010Prop41ColorRGB
 90
        0
102
RTVSPost2010PropOp41
 70
     1
102
RTVSPost2010Prop42
 90
       50
102
RTVSPost2010PropOp42
 70
     1
102
RTVSPost2010Prop43
 90
        3
102
RTVSPost2010PropOp43
 70
     1
102
RTVSPost2010Prop44ColorIndex
 90
        5
102
RTVSPost2010Prop44ColorRGB
 90
      255
102
RTVSPost2010PropOp44
 70
     1
102
RTVSPost2010Prop45
280
     0
102
RTVSPost2010PropOp45
 70
     1
102
RTVSPost2010Prop46
 90
       50
102
RTVSPost2010PropOp46
 70
     1
102
RTVSPost2010Prop47
 90
       50
102
RTVSPost2010PropOp47
 70
     1
102
RTVSPost2010Prop48
 90
       50
102
RTVSPost2010PropOp48
 70
     1
102
RTVSPost2010Prop49
280
     0
102
RTVSPost2010PropOp49
 70
     1
102
RTVSPost2010Prop50
 90
       50
102
RTVSPost2010PropOp50
 70
     1
102
RTVSPost2010Prop51ColorIndex
 90
      256
102
RTVSPost2010Prop51ColorRGB
 90
-16777216
102
RTVSPost2010PropOp51
 70
     0
102
RTVSPost2010Prop52
140
1.0
102
RTVSPost2010PropOp52
 70
     0
102
RTVSPost2010Prop53
 90
        2
102
RTVSPost2010PropOp53
 70
     1
102
RTVSPost2010Prop54
  1
strokes_ogs.tif
102
RTVSPost2010PropOp54
 70
     1
102
RTVSPost2010Prop55
280
     0
102
RTVSPost2010PropOp55
 70
     1
102
RTVSPost2010Prop56
140
1.0
102
RTVSPost2010PropOp56
 70
     1
102
RTVSPost2010Prop57
140
1.0
102
RTVSPost2010PropOp57
 70
     1
102
RTVSPropertyOp0
 70
     1
102
RTVSPropertyOp1
 70
     1
102
RTVSPropertyOp2
 70
     1
102
RTVSPropertyOp3
 70
     1
102
RTVSPropertyOp4
 70
     1
102
RTVSPropertyOp5
 70
     1
102
RTVSPropertyOp6
 70
     1
102
RTVSPropertyOp7
 70
     1
102
RTVSPropertyOp8
 70
     1
102
RTVSPropertyOp9
 70
     1
102
RTVSPropertyOp10
 70
     1
102
RTVSPropertyOp11
 70
     1
102
RTVSPropertyOp12
 70
     1
102
RTVSPropertyOp13
 70
     1
102
RTVSPropertyOp14
 70
     1
102
RTVSPropertyOp15
 70
     1
102
RTVSPropertyOp16
 70
     1
102
RTVSPropertyOp17
 70
     1
102
RTVSPropertyOp18
 70
     1
102
RTVSPropertyOp19
 70
     1
102
RTVSPropertyOp20
 70
     1
102
RTVSPropertyOp21
 70
     1
102
RTVSPropertyOp22
 70
     1
102
RTVSPropertyOp23
 70
     1
102
RTVSPropertyOp24
 70
     1
102
RTVSPropertyOp25
 70
     1
102
RTVSPropertyOp26
 70
     1
102
RTVSPropertyOp27
 70
     1
102
RTVSPropertyOp28
 70
     1
102
RTVSPropertyOp29
 70
     1
102
RTVSPropertyOp30
 70
     1
102
RTVSPropertyOp31
 70
     1
102
RTVSPropertyOp32
 70
     1
102
RTVSPropertyOp33
 70
     1
102
RTVSPropertyOp34
 70
     1
102
RTVSPropertyOp35
 70
     1
102
RTVSPropertyOp36
 70
     1
102
RTVSPropertyOp37
 70
     1
102
RTVSPropertyOp38
 70
     1
102
RTVSPropertyOp39
 70
     1
102
RTVSPropertyOp40
 70
     1
102
RTVSPropertyOp41
 70
     1
102
RTVSPropertyOp42
 70
     1
102
RTVSPropertyOp43
 70
     1
102
RTVSPropertyOp44
 70
     1
102
RTVSPropertyOp45
 70
     1
102
RTVSPropertyOp46
 70
     1
102
RTVSPropertyOp47
 70
     1
102
RTVSPropertyOp48
 70
     1
102
RTVSPropertyOp49
 70
     1
102
RTVSPropertyOp50
 70
     1
102
RTVSPropertyOp51
 70
     0
102
RTVSPropertyOp52
 70
     0
102
RTVSPropertyOp53
 70
     1
102
RTVSPropertyOp54
 70
     1
102
RTVSPropertyOp55
 70
     1
102
RTVSPropertyOp56
 70
     1
102
RTVSPropertyOp57
 70
     1
102
RTVSPropertyOp58
 70
     1
102
RTVSPropertyOp59
 70
     1
102
RTVSPropertyOp60
 70
     1
102
RTVSPropertyOp61
 70
     1
102
RTVSPropertyOp62
 70
     1
  0
XRECORD
  5
B75
102
{ACAD_REACTORS
330
B74
102
}
330
B74
100
AcDbXrecord
280
     1
102
RTVSPost2010Prop28
280
     0
102
RTVSPost2010PropOp28
 70
     1
102
RTVSPost2010Prop29
280
     1
102
RTVSPost2010PropOp29
 70
     1
102
RTVSPost2010Prop30
280
     1
102
RTVSPost2010PropOp30
 70
     1
102
RTVSPost2010Prop31
280
     0
102
RTVSPost2010PropOp31
 70
     1
102
RTVSPost2010Prop32
280
     0
102
RTVSPost2010PropOp32
 70
     1
102
RTVSPost2010Prop33
280
     0
102
RTVSPost2010PropOp33
 70
     1
102
RTVSPost2010Prop34
280
     0
102
RTVSPost2010PropOp34
 70
     1
102
RTVSPost2010Prop35
280
     0
102
RTVSPost2010PropOp35
 70
     1
102
RTVSPost2010Prop36
280
     0
102
RTVSPost2010PropOp36
 70
     1
102
RTVSPost2010Prop37
 90
       50
102
RTVSPost2010PropOp37
 70
     1
102
RTVSPost2010Prop38
140
0.0
102
RTVSPost2010PropOp38
 70
     1
102
RTVSPost2010Prop39
140
1.0
102
RTVSPost2010PropOp39
 70
     1
102
RTVSPost2010Prop40
 90
        0
102
RTVSPost2010PropOp40
 70
     1
102
RTVSPost2010Prop41ColorIndex
 90
       18
102
RTVSPost2010Prop41ColorRGB
 90
        0
102
RTVSPost2010PropOp41
 70
     1
102
RTVSPost2010Prop42
 90
       50
102
RTVSPost2010PropOp42
 70
     1
102
RTVSPost2010Prop43
 90
        3
102
RTVSPost2010PropOp43
 70
     1
102
RTVSPost2010Prop44ColorIndex
 90
        5
102
RTVSPost2010Prop44ColorRGB
 90
      255
102
RTVSPost2010PropOp44
 70
     1
102
RTVSPost2010Prop45
280
     0
102
RTVSPost2010PropOp45
 70
     1
102
RTVSPost2010Prop46
 90
       50
102
RTVSPost2010PropOp46
 70
     1
102
RTVSPost2010Prop47
 90
       50
102
RTVSPost2010PropOp47
 70
     1
102
RTVSPost2010Prop48
 90
       50
102
RTVSPost2010PropOp48
 70
     1
102
RTVSPost2010Prop49
280
     0
102
RTVSPost2010PropOp49
 70
     1
102
RTVSPost2010Prop50
 90
       50
102
RTVSPost2010PropOp50
 70
     1
102
RTVSPost2010Prop51ColorIndex
 90
      256
102
RTVSPost2010Prop51ColorRGB
 90
-16777216
102
RTVSPost2010PropOp51
 70
     0
102
RTVSPost2010Prop52
140
1.0
102
RTVSPost2010PropOp52
 70
     0
102
RTVSPost2010Prop53
 90
        2
102
RTVSPost2010PropOp53
 70
     1
102
RTVSPost2010Prop54
  1
strokes_ogs.tif
102
RTVSPost2010PropOp54
 70
     1
102
RTVSPost2010Prop55
280
     0
102
RTVSPost2010PropOp55
 70
     1
102
RTVSPost2010Prop56
140
1.0
102
RTVSPost2010PropOp56
 70
     1
102
RTVSPost2010Prop57
140
1.0
102
RTVSPost2010PropOp57
 70
     1
102
RTVSPropertyOp0
 70
     1
102
RTVSPropertyOp1
 70
     1
102
RTVSPropertyOp2
 70
     1
102
RTVSPropertyOp3
 70
     1
102
RTVSPropertyOp4
 70
     1
102
RTVSPropertyOp5
 70
     1
102
RTVSPropertyOp6
 70
     1
102
RTVSPropertyOp7
 70
     1
102
RTVSPropertyOp8
 70
     1
102
RTVSPropertyOp9
 70
     1
102
RTVSPropertyOp10
 70
     1
102
RTVSPropertyOp11
 70
     1
102
RTVSPropertyOp12
 70
     1
102
RTVSPropertyOp13
 70
     1
102
RTVSPropertyOp14
 70
     1
102
RTVSPropertyOp15
 70
     1
102
RTVSPropertyOp16
 70
     1
102
RTVSPropertyOp17
 70
     1
102
RTVSPropertyOp18
 70
     1
102
RTVSPropertyOp19
 70
     1
102
RTVSPropertyOp20
 70
     1
102
RTVSPropertyOp21
 70
     1
102
RTVSPropertyOp22
 70
     1
102
RTVSPropertyOp23
 70
     1
102
RTVSPropertyOp24
 70
     1
102
RTVSPropertyOp25
 70
     1
102
RTVSPropertyOp26
 70
     1
102
RTVSPropertyOp27
 70
     1
102
RTVSPropertyOp28
 70
     1
102
RTVSPropertyOp29
 70
     1
102
RTVSPropertyOp30
 70
     1
102
RTVSPropertyOp31
 70
     1
102
RTVSPropertyOp32
 70
     1
102
RTVSPropertyOp33
 70
     1
102
RTVSPropertyOp34
 70
     1
102
RTVSPropertyOp35
 70
     1
102
RTVSPropertyOp36
 70
     1
102
RTVSPropertyOp37
 70
     1
102
RTVSPropertyOp38
 70
     1
102
RTVSPropertyOp39
 70
     1
102
RTVSPropertyOp40
 70
     1
102
RTVSPropertyOp41
 70
     1
102
RTVSPropertyOp42
 70
     1
102
RTVSPropertyOp43
 70
     1
102
RTVSPropertyOp44
 70
     1
102
RTVSPropertyOp45
 70
     1
102
RTVSPropertyOp46
 70
     1
102
RTVSPropertyOp47
 70
     1
102
RTVSPropertyOp48
 70
     1
102
RTVSPropertyOp49
 70
     1
102
RTVSPropertyOp50
 70
     1
102
RTVSPropertyOp51
 70
     0
102
RTVSPropertyOp52
 70
     0
102
RTVSPropertyOp53
 70
     1
102
RTVSPropertyOp54
 70
     1
102
RTVSPropertyOp55
 70
     1
102
RTVSPropertyOp56
 70
     1
102
RTVSPropertyOp57
 70
     1
102
RTVSPropertyOp58
 70
     1
102
RTVSPropertyOp59
 70
     1
102
RTVSPropertyOp60
 70
     1
102
RTVSPropertyOp61
 70
     1
102
RTVSPropertyOp62
 70
     1
  0
XRECORD
  5
B79
102
{ACAD_REACTORS
330
B78
102
}
330
B78
100
AcDbXrecord
280
     1
102
RTVSPost2010Prop28
280
     0
102
RTVSPost2010PropOp28
 70
     1
102
RTVSPost2010Prop29
280
     1
102
RTVSPost2010PropOp29
 70
     1
102
RTVSPost2010Prop30
280
     1
102
RTVSPost2010PropOp30
 70
     1
102
RTVSPost2010Prop31
280
     0
102
RTVSPost2010PropOp31
 70
     1
102
RTVSPost2010Prop32
280
     0
102
RTVSPost2010PropOp32
 70
     1
102
RTVSPost2010Prop33
280
     0
102
RTVSPost2010PropOp33
 70
     1
102
RTVSPost2010Prop34
280
     0
102
RTVSPost2010PropOp34
 70
     1
102
RTVSPost2010Prop35
280
     0
102
RTVSPost2010PropOp35
 70
     1
102
RTVSPost2010Prop36
280
     0
102
RTVSPost2010PropOp36
 70
     1
102
RTVSPost2010Prop37
 90
       50
102
RTVSPost2010PropOp37
 70
     1
102
RTVSPost2010Prop38
140
0.0
102
RTVSPost2010PropOp38
 70
     1
102
RTVSPost2010Prop39
140
1.0
102
RTVSPost2010PropOp39
 70
     1
102
RTVSPost2010Prop40
 90
        0
102
RTVSPost2010PropOp40
 70
     1
102
RTVSPost2010Prop41ColorIndex
 90
       18
102
RTVSPost2010Prop41ColorRGB
 90
        0
102
RTVSPost2010PropOp41
 70
     1
102
RTVSPost2010Prop42
 90
       50
102
RTVSPost2010PropOp42
 70
     1
102
RTVSPost2010Prop43
 90
        3
102
RTVSPost2010PropOp43
 70
     1
102
RTVSPost2010Prop44ColorIndex
 90
        5
102
RTVSPost2010Prop44ColorRGB
 90
      255
102
RTVSPost2010PropOp44
 70
     1
102
RTVSPost2010Prop45
280
     0
102
RTVSPost2010PropOp45
 70
     1
102
RTVSPost2010Prop46
 90
       50
102
RTVSPost2010PropOp46
 70
     1
102
RTVSPost2010Prop47
 90
       50
102
RTVSPost2010PropOp47
 70
     1
102
RTVSPost2010Prop48
 90
       50
102
RTVSPost2010PropOp48
 70
     1
102
RTVSPost2010Prop49
280
     0
102
RTVSPost2010PropOp49
 70
     1
102
RTVSPost2010Prop50
 90
       50
102
RTVSPost2010PropOp50
 70
     1
102
RTVSPost2010Prop51ColorIndex
 90
      256
102
RTVSPost2010Prop51ColorRGB
 90
-16777216
102
RTVSPost2010PropOp51
 70
     0
102
RTVSPost2010Prop52
140
1.0
102
RTVSPost2010PropOp52
 70
     0
102
RTVSPost2010Prop53
 90
        2
102
RTVSPost2010PropOp53
 70
     1
102
RTVSPost2010Prop54
  1
strokes_ogs.tif
102
RTVSPost2010PropOp54
 70
     1
102
RTVSPost2010Prop55
280
     0
102
RTVSPost2010PropOp55
 70
     1
102
RTVSPost2010Prop56
140
1.0
102
RTVSPost2010PropOp56
 70
     1
102
RTVSPost2010Prop57
140
1.0
102
RTVSPost2010PropOp57
 70
     1
102
RTVSPropertyOp0
 70
     1
102
RTVSPropertyOp1
 70
     1
102
RTVSPropertyOp2
 70
     1
102
RTVSPropertyOp3
 70
     1
102
RTVSPropertyOp4
 70
     1
102
RTVSPropertyOp5
 70
     1
102
RTVSPropertyOp6
 70
     1
102
RTVSPropertyOp7
 70
     1
102
RTVSPropertyOp8
 70
     1
102
RTVSPropertyOp9
 70
     1
102
RTVSPropertyOp10
 70
     1
102
RTVSPropertyOp11
 70
     1
102
RTVSPropertyOp12
 70
     1
102
RTVSPropertyOp13
 70
     1
102
RTVSPropertyOp14
 70
     1
102
RTVSPropertyOp15
 70
     1
102
RTVSPropertyOp16
 70
     1
102
RTVSPropertyOp17
 70
     1
102
RTVSPropertyOp18
 70
     1
102
RTVSPropertyOp19
 70
     1
102
RTVSPropertyOp20
 70
     1
102
RTVSPropertyOp21
 70
     1
102
RTVSPropertyOp22
 70
     1
102
RTVSPropertyOp23
 70
     1
102
RTVSPropertyOp24
 70
     1
102
RTVSPropertyOp25
 70
     1
102
RTVSPropertyOp26
 70
     1
102
RTVSPropertyOp27
 70
     1
102
RTVSPropertyOp28
 70
     1
102
RTVSPropertyOp29
 70
     1
102
RTVSPropertyOp30
 70
     1
102
RTVSPropertyOp31
 70
     1
102
RTVSPropertyOp32
 70
     1
102
RTVSPropertyOp33
 70
     1
102
RTVSPropertyOp34
 70
     1
102
RTVSPropertyOp35
 70
     1
102
RTVSPropertyOp36
 70
     1
102
RTVSPropertyOp37
 70
     1
102
RTVSPropertyOp38
 70
     1
102
RTVSPropertyOp39
 70
     1
102
RTVSPropertyOp40
 70
     1
102
RTVSPropertyOp41
 70
     1
102
RTVSPropertyOp42
 70
     1
102
RTVSPropertyOp43
 70
     1
102
RTVSPropertyOp44
 70
     1
102
RTVSPropertyOp45
 70
     1
102
RTVSPropertyOp46
 70
     1
102
RTVSPropertyOp47
 70
     1
102
RTVSPropertyOp48
 70
     1
102
RTVSPropertyOp49
 70
     1
102
RTVSPropertyOp50
 70
     1
102
RTVSPropertyOp51
 70
     0
102
RTVSPropertyOp52
 70
     0
102
RTVSPropertyOp53
 70
     1
102
RTVSPropertyOp54
 70
     1
102
RTVSPropertyOp55
 70
     1
102
RTVSPropertyOp56
 70
     1
102
RTVSPropertyOp57
 70
     1
102
RTVSPropertyOp58
 70
     1
102
RTVSPropertyOp59
 70
     1
102
RTVSPropertyOp60
 70
     1
102
RTVSPropertyOp61
 70
     1
102
RTVSPropertyOp62
 70
     1
  0
XRECORD
  5
B93
102
{ACAD_REACTORS
330
B92
102
}
330
B92
100
AcDbXrecord
280
     1
102
RTVSPost2010Prop28
280
     0
102
RTVSPost2010PropOp28
 70
     1
102
RTVSPost2010Prop29
280
     1
102
RTVSPost2010PropOp29
 70
     1
102
RTVSPost2010Prop30
280
     1
102
RTVSPost2010PropOp30
 70
     1
102
RTVSPost2010Prop31
280
     0
102
RTVSPost2010PropOp31
 70
     1
102
RTVSPost2010Prop32
280
     0
102
RTVSPost2010PropOp32
 70
     1
102
RTVSPost2010Prop33
280
     0
102
RTVSPost2010PropOp33
 70
     1
102
RTVSPost2010Prop34
280
     0
102
RTVSPost2010PropOp34
 70
     1
102
RTVSPost2010Prop35
280
     0
102
RTVSPost2010PropOp35
 70
     1
102
RTVSPost2010Prop36
280
     0
102
RTVSPost2010PropOp36
 70
     1
102
RTVSPost2010Prop37
 90
       50
102
RTVSPost2010PropOp37
 70
     0
102
RTVSPost2010Prop38
140
0.0
102
RTVSPost2010PropOp38
 70
     0
102
RTVSPost2010Prop39
140
1.0
102
RTVSPost2010PropOp39
 70
     0
102
RTVSPost2010Prop40
 90
        0
102
RTVSPost2010PropOp40
 70
     0
102
RTVSPost2010Prop41ColorIndex
 90
       18
102
RTVSPost2010Prop41ColorRGB
 90
        0
102
RTVSPost2010PropOp41
 70
     0
102
RTVSPost2010Prop42
 90
       50
102
RTVSPost2010PropOp42
 70
     0
102
RTVSPost2010Prop43
 90
        3
102
RTVSPost2010PropOp43
 70
     0
102
RTVSPost2010Prop44ColorIndex
 90
        5
102
RTVSPost2010Prop44ColorRGB
 90
      255
102
RTVSPost2010PropOp44
 70
     0
102
RTVSPost2010Prop45
280
     0
102
RTVSPost2010PropOp45
 70
     1
102
RTVSPost2010Prop46
 90
       50
102
RTVSPost2010PropOp46
 70
     0
102
RTVSPost2010Prop47
 90
       50
102
RTVSPost2010PropOp47
 70
     0
102
RTVSPost2010Prop48
 90
       50
102
RTVSPost2010PropOp48
 70
     0
102
RTVSPost2010Prop49
280
     0
102
RTVSPost2010PropOp49
 70
     1
102
RTVSPost2010Prop50
 90
       50
102
RTVSPost2010PropOp50
 70
     0
102
RTVSPost2010Prop51ColorIndex
 90
      256
102
RTVSPost2010Prop51ColorRGB
 90
-16777216
102
RTVSPost2010PropOp51
 70
     0
102
RTVSPost2010Prop52
140
1.0
102
RTVSPost2010PropOp52
 70
     0
102
RTVSPost2010Prop53
 90
        2
102
RTVSPost2010PropOp53
 70
     0
102
RTVSPost2010Prop54
  1
strokes_ogs.tif
102
RTVSPost2010PropOp54
 70
     0
102
RTVSPost2010Prop55
280
     0
102
RTVSPost2010PropOp55
 70
     1
102
RTVSPost2010Prop56
140
1.0
102
RTVSPost2010PropOp56
 70
     0
102
RTVSPost2010Prop57
140
1.0
102
RTVSPost2010PropOp57
 70
     0
102
RTVSPropertyOp0
 70
     0
102
RTVSPropertyOp1
 70
     0
102
RTVSPropertyOp2
 70
     0
102
RTVSPropertyOp3
 70
     0
102
RTVSPropertyOp4
 70
     0
102
RTVSPropertyOp5
 70
     0
102
RTVSPropertyOp6
 70
     0
102
RTVSPropertyOp7
 70
     0
102
RTVSPropertyOp8
 70
     0
102
RTVSPropertyOp9
 70
     0
102
RTVSPropertyOp10
 70
     0
102
RTVSPropertyOp11
 70
     0
102
RTVSPropertyOp12
 70
     0
102
RTVSPropertyOp13
 70
     0
102
RTVSPropertyOp14
 70
     2
102
RTVSPropertyOp15
 70
     0
102
RTVSPropertyOp16
 70
     0
102
RTVSPropertyOp17
 70
     0
102
RTVSPropertyOp18
 70
     0
102
RTVSPropertyOp19
 70
     0
102
RTVSPropertyOp20
 70
     0
102
RTVSPropertyOp21
 70
     0
102
RTVSPropertyOp22
 70
     0
102
RTVSPropertyOp23
 70
     0
102
RTVSPropertyOp24
 70
     0
102
RTVSPropertyOp25
 70
     0
102
RTVSPropertyOp26
 70
     0
102
RTVSPropertyOp27
 70
     0
102
RTVSPropertyOp28
 70
     1
102
RTVSPropertyOp29
 70
     1
102
RTVSPropertyOp30
 70
     1
102
RTVSPropertyOp31
 70
     1
102
RTVSPropertyOp32
 70
     1
102
RTVSPropertyOp33
 70
     1
102
RTVSPropertyOp34
 70
     1
102
RTVSPropertyOp35
 70
     1
102
RTVSPropertyOp36
 70
     1
102
RTVSPropertyOp37
 70
     0
102
RTVSPropertyOp38
 70
     0
102
RTVSPropertyOp39
 70
     0
102
RTVSPropertyOp40
 70
     0
102
RTVSPropertyOp41
 70
     0
102
RTVSPropertyOp42
 70
     0
102
RTVSPropertyOp43
 70
     0
102
RTVSPropertyOp44
 70
     0
102
RTVSPropertyOp45
 70
     1
102
RTVSPropertyOp46
 70
     0
102
RTVSPropertyOp47
 70
     0
102
RTVSPropertyOp48
 70
     0
102
RTVSPropertyOp49
 70
     1
102
RTVSPropertyOp50
 70
     0
102
RTVSPropertyOp51
 70
     0
102
RTVSPropertyOp52
 70
     0
102
RTVSPropertyOp53
 70
     0
102
RTVSPropertyOp54
 70
     0
102
RTVSPropertyOp55
 70
     1
102
RTVSPropertyOp56
 70
     0
102
RTVSPropertyOp57
 70
     0
102
RTVSPropertyOp58
 70
     1
102
RTVSPropertyOp59
 70
     1
102
RTVSPropertyOp60
 70
     1
102
RTVSPropertyOp61
 70
     1
102
RTVSPropertyOp62
 70
     1
  0
XRECORD
  5
B81
102
{ACAD_REACTORS
330
B80
102
}
330
B80
100
AcDbXrecord
280
     1
102
RTVSPost2010Prop28
280
     0
102
RTVSPost2010PropOp28
 70
     1
102
RTVSPost2010Prop29
280
     1
102
RTVSPost2010PropOp29
 70
     1
102
RTVSPost2010Prop30
280
     1
102
RTVSPost2010PropOp30
 70
     1
102
RTVSPost2010Prop31
280
     0
102
RTVSPost2010PropOp31
 70
     1
102
RTVSPost2010Prop32
280
     0
102
RTVSPost2010PropOp32
 70
     1
102
RTVSPost2010Prop33
280
     0
102
RTVSPost2010PropOp33
 70
     1
102
RTVSPost2010Prop34
280
     0
102
RTVSPost2010PropOp34
 70
     1
102
RTVSPost2010Prop35
280
     0
102
RTVSPost2010PropOp35
 70
     1
102
RTVSPost2010Prop36
280
     0
102
RTVSPost2010PropOp36
 70
     1
102
RTVSPost2010Prop37
 90
       50
102
RTVSPost2010PropOp37
 70
     1
102
RTVSPost2010Prop38
140
0.0
102
RTVSPost2010PropOp38
 70
     1
102
RTVSPost2010Prop39
140
1.0
102
RTVSPost2010PropOp39
 70
     1
102
RTVSPost2010Prop40
 90
        0
102
RTVSPost2010PropOp40
 70
     1
102
RTVSPost2010Prop41ColorIndex
 90
       18
102
RTVSPost2010Prop41ColorRGB
 90
        0
102
RTVSPost2010PropOp41
 70
     1
102
RTVSPost2010Prop42
 90
       50
102
RTVSPost2010PropOp42
 70
     1
102
RTVSPost2010Prop43
 90
        3
102
RTVSPost2010PropOp43
 70
     1
102
RTVSPost2010Prop44ColorIndex
 90
        5
102
RTVSPost2010Prop44ColorRGB
 90
      255
102
RTVSPost2010PropOp44
 70
     1
102
RTVSPost2010Prop45
280
     0
102
RTVSPost2010PropOp45
 70
     1
102
RTVSPost2010Prop46
 90
       50
102
RTVSPost2010PropOp46
 70
     1
102
RTVSPost2010Prop47
 90
       50
102
RTVSPost2010PropOp47
 70
     1
102
RTVSPost2010Prop48
 90
       50
102
RTVSPost2010PropOp48
 70
     1
102
RTVSPost2010Prop49
280
     0
102
RTVSPost2010PropOp49
 70
     1
102
RTVSPost2010Prop50
 90
       50
102
RTVSPost2010PropOp50
 70
     1
102
RTVSPost2010Prop51ColorIndex
 90
      256
102
RTVSPost2010Prop51ColorRGB
 90
-16777216
102
RTVSPost2010PropOp51
 70
     0
102
RTVSPost2010Prop52
140
1.0
102
RTVSPost2010PropOp52
 70
     0
102
RTVSPost2010Prop53
 90
        2
102
RTVSPost2010PropOp53
 70
     1
102
RTVSPost2010Prop54
  1
strokes_ogs.tif
102
RTVSPost2010PropOp54
 70
     1
102
RTVSPost2010Prop55
280
     0
102
RTVSPost2010PropOp55
 70
     1
102
RTVSPost2010Prop56
140
1.0
102
RTVSPost2010PropOp56
 70
     1
102
RTVSPost2010Prop57
140
1.0
102
RTVSPost2010PropOp57
 70
     1
102
RTVSPropertyOp0
 70
     1
102
RTVSPropertyOp1
 70
     1
102
RTVSPropertyOp2
 70
     1
102
RTVSPropertyOp3
 70
     1
102
RTVSPropertyOp4
 70
     1
102
RTVSPropertyOp5
 70
     1
102
RTVSPropertyOp6
 70
     1
102
RTVSPropertyOp7
 70
     1
102
RTVSPropertyOp8
 70
     1
102
RTVSPropertyOp9
 70
     1
102
RTVSPropertyOp10
 70
     1
102
RTVSPropertyOp11
 70
     1
102
RTVSPropertyOp12
 70
     1
102
RTVSPropertyOp13
 70
     1
102
RTVSPropertyOp14
 70
     1
102
RTVSPropertyOp15
 70
     1
102
RTVSPropertyOp16
 70
     1
102
RTVSPropertyOp17
 70
     1
102
RTVSPropertyOp18
 70
     1
102
RTVSPropertyOp19
 70
     1
102
RTVSPropertyOp20
 70
     1
102
RTVSPropertyOp21
 70
     1
102
RTVSPropertyOp22
 70
     1
102
RTVSPropertyOp23
 70
     1
102
RTVSPropertyOp24
 70
     1
102
RTVSPropertyOp25
 70
     1
102
RTVSPropertyOp26
 70
     1
102
RTVSPropertyOp27
 70
     1
102
RTVSPropertyOp28
 70
     1
102
RTVSPropertyOp29
 70
     1
102
RTVSPropertyOp30
 70
     1
102
RTVSPropertyOp31
 70
     1
102
RTVSPropertyOp32
 70
     1
102
RTVSPropertyOp33
 70
     1
102
RTVSPropertyOp34
 70
     1
102
RTVSPropertyOp35
 70
     1
102
RTVSPropertyOp36
 70
     1
102
RTVSPropertyOp37
 70
     1
102
RTVSPropertyOp38
 70
     1
102
RTVSPropertyOp39
 70
     1
102
RTVSPropertyOp40
 70
     1
102
RTVSPropertyOp41
 70
     1
102
RTVSPropertyOp42
 70
     1
102
RTVSPropertyOp43
 70
     1
102
RTVSPropertyOp44
 70
     1
102
RTVSPropertyOp45
 70
     1
102
RTVSPropertyOp46
 70
     1
102
RTVSPropertyOp47
 70
     1
102
RTVSPropertyOp48
 70
     1
102
RTVSPropertyOp49
 70
     1
102
RTVSPropertyOp50
 70
     1
102
RTVSPropertyOp51
 70
     0
102
RTVSPropertyOp52
 70
     0
102
RTVSPropertyOp53
 70
     1
102
RTVSPropertyOp54
 70
     1
102
RTVSPropertyOp55
 70
     1
102
RTVSPropertyOp56
 70
     1
102
RTVSPropertyOp57
 70
     1
102
RTVSPropertyOp58
 70
     1
102
RTVSPropertyOp59
 70
     1
102
RTVSPropertyOp60
 70
     1
102
RTVSPropertyOp61
 70
     1
102
RTVSPropertyOp62
 70
     1
  0
XRECORD
  5
B65
102
{ACAD_REACTORS
330
B64
102
}
330
B64
100
AcDbXrecord
280
     1
102
RTVSPost2010Prop28
280
     0
102
RTVSPost2010PropOp28
 70
     1
102
RTVSPost2010Prop29
280
     1
102
RTVSPost2010PropOp29
 70
     1
102
RTVSPost2010Prop30
280
     1
102
RTVSPost2010PropOp30
 70
     1
102
RTVSPost2010Prop31
280
     0
102
RTVSPost2010PropOp31
 70
     1
102
RTVSPost2010Prop32
280
     0
102
RTVSPost2010PropOp32
 70
     1
102
RTVSPost2010Prop33
280
     0
102
RTVSPost2010PropOp33
 70
     1
102
RTVSPost2010Prop34
280
     0
102
RTVSPost2010PropOp34
 70
     1
102
RTVSPost2010Prop35
280
     0
102
RTVSPost2010PropOp35
 70
     1
102
RTVSPost2010Prop36
280
     0
102
RTVSPost2010PropOp36
 70
     1
102
RTVSPost2010Prop37
 90
       50
102
RTVSPost2010PropOp37
 70
     1
102
RTVSPost2010Prop38
140
0.0
102
RTVSPost2010PropOp38
 70
     1
102
RTVSPost2010Prop39
140
1.0
102
RTVSPost2010PropOp39
 70
     1
102
RTVSPost2010Prop40
 90
        0
102
RTVSPost2010PropOp40
 70
     1
102
RTVSPost2010Prop41ColorIndex
 90
       18
102
RTVSPost2010Prop41ColorRGB
 90
        0
102
RTVSPost2010PropOp41
 70
     1
102
RTVSPost2010Prop42
 90
       50
102
RTVSPost2010PropOp42
 70
     1
102
RTVSPost2010Prop43
 90
        3
102
RTVSPost2010PropOp43
 70
     1
102
RTVSPost2010Prop44ColorIndex
 90
        5
102
RTVSPost2010Prop44ColorRGB
 90
      255
102
RTVSPost2010PropOp44
 70
     1
102
RTVSPost2010Prop45
280
     0
102
RTVSPost2010PropOp45
 70
     1
102
RTVSPost2010Prop46
 90
       50
102
RTVSPost2010PropOp46
 70
     1
102
RTVSPost2010Prop47
 90
       50
102
RTVSPost2010PropOp47
 70
     1
102
RTVSPost2010Prop48
 90
       50
102
RTVSPost2010PropOp48
 70
     1
102
RTVSPost2010Prop49
280
     0
102
RTVSPost2010PropOp49
 70
     1
102
RTVSPost2010Prop50
 90
       50
102
RTVSPost2010PropOp50
 70
     1
102
RTVSPost2010Prop51ColorIndex
 90
      256
102
RTVSPost2010Prop51ColorRGB
 90
-16777216
102
RTVSPost2010PropOp51
 70
     0
102
RTVSPost2010Prop52
140
1.0
102
RTVSPost2010PropOp52
 70
     0
102
RTVSPost2010Prop53
 90
        2
102
RTVSPost2010PropOp53
 70
     1
102
RTVSPost2010Prop54
  1
strokes_ogs.tif
102
RTVSPost2010PropOp54
 70
     1
102
RTVSPost2010Prop55
280
     0
102
RTVSPost2010PropOp55
 70
     1
102
RTVSPost2010Prop56
140
1.0
102
RTVSPost2010PropOp56
 70
     1
102
RTVSPost2010Prop57
140
1.0
102
RTVSPost2010PropOp57
 70
     1
102
RTVSPropertyOp0
 70
     1
102
RTVSPropertyOp1
 70
     1
102
RTVSPropertyOp2
 70
     1
102
RTVSPropertyOp3
 70
     1
102
RTVSPropertyOp4
 70
     1
102
RTVSPropertyOp5
 70
     1
102
RTVSPropertyOp6
 70
     1
102
RTVSPropertyOp7
 70
     1
102
RTVSPropertyOp8
 70
     1
102
RTVSPropertyOp9
 70
     1
102
RTVSPropertyOp10
 70
     1
102
RTVSPropertyOp11
 70
     1
102
RTVSPropertyOp12
 70
     1
102
RTVSPropertyOp13
 70
     1
102
RTVSPropertyOp14
 70
     1
102
RTVSPropertyOp15
 70
     1
102
RTVSPropertyOp16
 70
     1
102
RTVSPropertyOp17
 70
     1
102
RTVSPropertyOp18
 70
     1
102
RTVSPropertyOp19
 70
     1
102
RTVSPropertyOp20
 70
     1
102
RTVSPropertyOp21
 70
     1
102
RTVSPropertyOp22
 70
     1
102
RTVSPropertyOp23
 70
     1
102
RTVSPropertyOp24
 70
     1
102
RTVSPropertyOp25
 70
     1
102
RTVSPropertyOp26
 70
     1
102
RTVSPropertyOp27
 70
     1
102
RTVSPropertyOp28
 70
     1
102
RTVSPropertyOp29
 70
     1
102
RTVSPropertyOp30
 70
     1
102
RTVSPropertyOp31
 70
     1
102
RTVSPropertyOp32
 70
     1
102
RTVSPropertyOp33
 70
     1
102
RTVSPropertyOp34
 70
     1
102
RTVSPropertyOp35
 70
     1
102
RTVSPropertyOp36
 70
     1
102
RTVSPropertyOp37
 70
     1
102
RTVSPropertyOp38
 70
     1
102
RTVSPropertyOp39
 70
     1
102
RTVSPropertyOp40
 70
     1
102
RTVSPropertyOp41
 70
     1
102
RTVSPropertyOp42
 70
     1
102
RTVSPropertyOp43
 70
     1
102
RTVSPropertyOp44
 70
     1
102
RTVSPropertyOp45
 70
     1
102
RTVSPropertyOp46
 70
     1
102
RTVSPropertyOp47
 70
     1
102
RTVSPropertyOp48
 70
     1
102
RTVSPropertyOp49
 70
     1
102
RTVSPropertyOp50
 70
     1
102
RTVSPropertyOp51
 70
     0
102
RTVSPropertyOp52
 70
     0
102
RTVSPropertyOp53
 70
     1
102
RTVSPropertyOp54
 70
     1
102
RTVSPropertyOp55
 70
     1
102
RTVSPropertyOp56
 70
     1
102
RTVSPropertyOp57
 70
     1
102
RTVSPropertyOp58
 70
     1
102
RTVSPropertyOp59
 70
     1
102
RTVSPropertyOp60
 70
     1
102
RTVSPropertyOp61
 70
     1
102
RTVSPropertyOp62
 70
     1
  0
XRECORD
  5
B67
102
{ACAD_REACTORS
330
B66
102
}
330
B66
100
AcDbXrecord
280
     1
102
RTVSPost2010Prop28
280
     0
102
RTVSPost2010PropOp28
 70
     1
102
RTVSPost2010Prop29
280
     1
102
RTVSPost2010PropOp29
 70
     1
102
RTVSPost2010Prop30
280
     1
102
RTVSPost2010PropOp30
 70
     1
102
RTVSPost2010Prop31
280
     0
102
RTVSPost2010PropOp31
 70
     1
102
RTVSPost2010Prop32
280
     0
102
RTVSPost2010PropOp32
 70
     1
102
RTVSPost2010Prop33
280
     0
102
RTVSPost2010PropOp33
 70
     1
102
RTVSPost2010Prop34
280
     0
102
RTVSPost2010PropOp34
 70
     1
102
RTVSPost2010Prop35
280
     0
102
RTVSPost2010PropOp35
 70
     1
102
RTVSPost2010Prop36
280
     0
102
RTVSPost2010PropOp36
 70
     1
102
RTVSPost2010Prop37
 90
       50
102
RTVSPost2010PropOp37
 70
     1
102
RTVSPost2010Prop38
140
0.0
102
RTVSPost2010PropOp38
 70
     1
102
RTVSPost2010Prop39
140
1.0
102
RTVSPost2010PropOp39
 70
     1
102
RTVSPost2010Prop40
 90
        0
102
RTVSPost2010PropOp40
 70
     1
102
RTVSPost2010Prop41ColorIndex
 90
       18
102
RTVSPost2010Prop41ColorRGB
 90
        0
102
RTVSPost2010PropOp41
 70
     1
102
RTVSPost2010Prop42
 90
       50
102
RTVSPost2010PropOp42
 70
     1
102
RTVSPost2010Prop43
 90
        3
102
RTVSPost2010PropOp43
 70
     1
102
RTVSPost2010Prop44ColorIndex
 90
        5
102
RTVSPost2010Prop44ColorRGB
 90
      255
102
RTVSPost2010PropOp44
 70
     1
102
RTVSPost2010Prop45
280
     0
102
RTVSPost2010PropOp45
 70
     1
102
RTVSPost2010Prop46
 90
       50
102
RTVSPost2010PropOp46
 70
     1
102
RTVSPost2010Prop47
 90
       50
102
RTVSPost2010PropOp47
 70
     1
102
RTVSPost2010Prop48
 90
       50
102
RTVSPost2010PropOp48
 70
     1
102
RTVSPost2010Prop49
280
     0
102
RTVSPost2010PropOp49
 70
     1
102
RTVSPost2010Prop50
 90
       50
102
RTVSPost2010PropOp50
 70
     1
102
RTVSPost2010Prop51ColorIndex
 90
      256
102
RTVSPost2010Prop51ColorRGB
 90
-16777216
102
RTVSPost2010PropOp51
 70
     0
102
RTVSPost2010Prop52
140
1.0
102
RTVSPost2010PropOp52
 70
     0
102
RTVSPost2010Prop53
 90
        2
102
RTVSPost2010PropOp53
 70
     1
102
RTVSPost2010Prop54
  1
strokes_ogs.tif
102
RTVSPost2010PropOp54
 70
     1
102
RTVSPost2010Prop55
280
     0
102
RTVSPost2010PropOp55
 70
     1
102
RTVSPost2010Prop56
140
1.0
102
RTVSPost2010PropOp56
 70
     1
102
RTVSPost2010Prop57
140
1.0
102
RTVSPost2010PropOp57
 70
     1
102
RTVSPropertyOp0
 70
     1
102
RTVSPropertyOp1
 70
     1
102
RTVSPropertyOp2
 70
     1
102
RTVSPropertyOp3
 70
     1
102
RTVSPropertyOp4
 70
     1
102
RTVSPropertyOp5
 70
     1
102
RTVSPropertyOp6
 70
     1
102
RTVSPropertyOp7
 70
     1
102
RTVSPropertyOp8
 70
     1
102
RTVSPropertyOp9
 70
     1
102
RTVSPropertyOp10
 70
     1
102
RTVSPropertyOp11
 70
     1
102
RTVSPropertyOp12
 70
     1
102
RTVSPropertyOp13
 70
     1
102
RTVSPropertyOp14
 70
     1
102
RTVSPropertyOp15
 70
     1
102
RTVSPropertyOp16
 70
     1
102
RTVSPropertyOp17
 70
     1
102
RTVSPropertyOp18
 70
     1
102
RTVSPropertyOp19
 70
     1
102
RTVSPropertyOp20
 70
     1
102
RTVSPropertyOp21
 70
     1
102
RTVSPropertyOp22
 70
     1
102
RTVSPropertyOp23
 70
     1
102
RTVSPropertyOp24
 70
     1
102
RTVSPropertyOp25
 70
     1
102
RTVSPropertyOp26
 70
     1
102
RTVSPropertyOp27
 70
     1
102
RTVSPropertyOp28
 70
     1
102
RTVSPropertyOp29
 70
     1
102
RTVSPropertyOp30
 70
     1
102
RTVSPropertyOp31
 70
     1
102
RTVSPropertyOp32
 70
     1
102
RTVSPropertyOp33
 70
     1
102
RTVSPropertyOp34
 70
     1
102
RTVSPropertyOp35
 70
     1
102
RTVSPropertyOp36
 70
     1
102
RTVSPropertyOp37
 70
     1
102
RTVSPropertyOp38
 70
     1
102
RTVSPropertyOp39
 70
     1
102
RTVSPropertyOp40
 70
     1
102
RTVSPropertyOp41
 70
     1
102
RTVSPropertyOp42
 70
     1
102
RTVSPropertyOp43
 70
     1
102
RTVSPropertyOp44
 70
     1
102
RTVSPropertyOp45
 70
     1
102
RTVSPropertyOp46
 70
     1
102
RTVSPropertyOp47
 70
     1
102
RTVSPropertyOp48
 70
     1
102
RTVSPropertyOp49
 70
     1
102
RTVSPropertyOp50
 70
     1
102
RTVSPropertyOp51
 70
     0
102
RTVSPropertyOp52
 70
     0
102
RTVSPropertyOp53
 70
     1
102
RTVSPropertyOp54
 70
     1
102
RTVSPropertyOp55
 70
     1
102
RTVSPropertyOp56
 70
     1
102
RTVSPropertyOp57
 70
     1
102
RTVSPropertyOp58
 70
     1
102
RTVSPropertyOp59
 70
     1
102
RTVSPropertyOp60
 70
     1
102
RTVSPropertyOp61
 70
     1
102
RTVSPropertyOp62
 70
     1
  0
XRECORD
  5
B69
102
{ACAD_REACTORS
330
B68
102
}
330
B68
100
AcDbXrecord
280
     1
102
RTVSPost2010Prop28
280
     0
102
RTVSPost2010PropOp28
 70
     1
102
RTVSPost2010Prop29
280
     1
102
RTVSPost2010PropOp29
 70
     1
102
RTVSPost2010Prop30
280
     1
102
RTVSPost2010PropOp30
 70
     1
102
RTVSPost2010Prop31
280
     0
102
RTVSPost2010PropOp31
 70
     1
102
RTVSPost2010Prop32
280
     0
102
RTVSPost2010PropOp32
 70
     1
102
RTVSPost2010Prop33
280
     0
102
RTVSPost2010PropOp33
 70
     1
102
RTVSPost2010Prop34
280
     0
102
RTVSPost2010PropOp34
 70
     1
102
RTVSPost2010Prop35
280
     0
102
RTVSPost2010PropOp35
 70
     1
102
RTVSPost2010Prop36
280
     0
102
RTVSPost2010PropOp36
 70
     1
102
RTVSPost2010Prop37
 90
       50
102
RTVSPost2010PropOp37
 70
     1
102
RTVSPost2010Prop38
140
0.0
102
RTVSPost2010PropOp38
 70
     1
102
RTVSPost2010Prop39
140
1.0
102
RTVSPost2010PropOp39
 70
     1
102
RTVSPost2010Prop40
 90
        0
102
RTVSPost2010PropOp40
 70
     1
102
RTVSPost2010Prop41ColorIndex
 90
       18
102
RTVSPost2010Prop41ColorRGB
 90
        0
102
RTVSPost2010PropOp41
 70
     1
102
RTVSPost2010Prop42
 90
       50
102
RTVSPost2010PropOp42
 70
     1
102
RTVSPost2010Prop43
 90
        3
102
RTVSPost2010PropOp43
 70
     1
102
RTVSPost2010Prop44ColorIndex
 90
        5
102
RTVSPost2010Prop44ColorRGB
 90
      255
102
RTVSPost2010PropOp44
 70
     1
102
RTVSPost2010Prop45
280
     0
102
RTVSPost2010PropOp45
 70
     1
102
RTVSPost2010Prop46
 90
       50
102
RTVSPost2010PropOp46
 70
     1
102
RTVSPost2010Prop47
 90
       50
102
RTVSPost2010PropOp47
 70
     1
102
RTVSPost2010Prop48
 90
       50
102
RTVSPost2010PropOp48
 70
     1
102
RTVSPost2010Prop49
280
     0
102
RTVSPost2010PropOp49
 70
     1
102
RTVSPost2010Prop50
 90
       50
102
RTVSPost2010PropOp50
 70
     1
102
RTVSPost2010Prop51ColorIndex
 90
      256
102
RTVSPost2010Prop51ColorRGB
 90
-16777216
102
RTVSPost2010PropOp51
 70
     0
102
RTVSPost2010Prop52
140
1.0
102
RTVSPost2010PropOp52
 70
     0
102
RTVSPost2010Prop53
 90
        2
102
RTVSPost2010PropOp53
 70
     1
102
RTVSPost2010Prop54
  1
strokes_ogs.tif
102
RTVSPost2010PropOp54
 70
     1
102
RTVSPost2010Prop55
280
     0
102
RTVSPost2010PropOp55
 70
     1
102
RTVSPost2010Prop56
140
1.0
102
RTVSPost2010PropOp56
 70
     1
102
RTVSPost2010Prop57
140
1.0
102
RTVSPost2010PropOp57
 70
     1
102
RTVSPropertyOp0
 70
     1
102
RTVSPropertyOp1
 70
     1
102
RTVSPropertyOp2
 70
     1
102
RTVSPropertyOp3
 70
     1
102
RTVSPropertyOp4
 70
     1
102
RTVSPropertyOp5
 70
     1
102
RTVSPropertyOp6
 70
     1
102
RTVSPropertyOp7
 70
     1
102
RTVSPropertyOp8
 70
     1
102
RTVSPropertyOp9
 70
     1
102
RTVSPropertyOp10
 70
     1
102
RTVSPropertyOp11
 70
     1
102
RTVSPropertyOp12
 70
     1
102
RTVSPropertyOp13
 70
     1
102
RTVSPropertyOp14
 70
     1
102
RTVSPropertyOp15
 70
     1
102
RTVSPropertyOp16
 70
     1
102
RTVSPropertyOp17
 70
     1
102
RTVSPropertyOp18
 70
     1
102
RTVSPropertyOp19
 70
     1
102
RTVSPropertyOp20
 70
     1
102
RTVSPropertyOp21
 70
     1
102
RTVSPropertyOp22
 70
     1
102
RTVSPropertyOp23
 70
     1
102
RTVSPropertyOp24
 70
     1
102
RTVSPropertyOp25
 70
     1
102
RTVSPropertyOp26
 70
     1
102
RTVSPropertyOp27
 70
     1
102
RTVSPropertyOp28
 70
     1
102
RTVSPropertyOp29
 70
     1
102
RTVSPropertyOp30
 70
     1
102
RTVSPropertyOp31
 70
     1
102
RTVSPropertyOp32
 70
     1
102
RTVSPropertyOp33
 70
     1
102
RTVSPropertyOp34
 70
     1
102
RTVSPropertyOp35
 70
     1
102
RTVSPropertyOp36
 70
     1
102
RTVSPropertyOp37
 70
     1
102
RTVSPropertyOp38
 70
     1
102
RTVSPropertyOp39
 70
     1
102
RTVSPropertyOp40
 70
     1
102
RTVSPropertyOp41
 70
     1
102
RTVSPropertyOp42
 70
     1
102
RTVSPropertyOp43
 70
     1
102
RTVSPropertyOp44
 70
     1
102
RTVSPropertyOp45
 70
     1
102
RTVSPropertyOp46
 70
     1
102
RTVSPropertyOp47
 70
     1
102
RTVSPropertyOp48
 70
     1
102
RTVSPropertyOp49
 70
     1
102
RTVSPropertyOp50
 70
     1
102
RTVSPropertyOp51
 70
     0
102
RTVSPropertyOp52
 70
     0
102
RTVSPropertyOp53
 70
     1
102
RTVSPropertyOp54
 70
     1
102
RTVSPropertyOp55
 70
     1
102
RTVSPropertyOp56
 70
     1
102
RTVSPropertyOp57
 70
     1
102
RTVSPropertyOp58
 70
     1
102
RTVSPropertyOp59
 70
     1
102
RTVSPropertyOp60
 70
     1
102
RTVSPropertyOp61
 70
     1
102
RTVSPropertyOp62
 70
     1
  0
XRECORD
  5
B6B
102
{ACAD_REACTORS
330
B6A
102
}
330
B6A
100
AcDbXrecord
280
     1
102
RTVSPost2010Prop28
280
     0
102
RTVSPost2010PropOp28
 70
     1
102
RTVSPost2010Prop29
280
     1
102
RTVSPost2010PropOp29
 70
     1
102
RTVSPost2010Prop30
280
     1
102
RTVSPost2010PropOp30
 70
     1
102
RTVSPost2010Prop31
280
     0
102
RTVSPost2010PropOp31
 70
     1
102
RTVSPost2010Prop32
280
     0
102
RTVSPost2010PropOp32
 70
     1
102
RTVSPost2010Prop33
280
     0
102
RTVSPost2010PropOp33
 70
     1
102
RTVSPost2010Prop34
280
     0
102
RTVSPost2010PropOp34
 70
     1
102
RTVSPost2010Prop35
280
     0
102
RTVSPost2010PropOp35
 70
     1
102
RTVSPost2010Prop36
280
     0
102
RTVSPost2010PropOp36
 70
     1
102
RTVSPost2010Prop37
 90
       50
102
RTVSPost2010PropOp37
 70
     1
102
RTVSPost2010Prop38
140
0.0
102
RTVSPost2010PropOp38
 70
     1
102
RTVSPost2010Prop39
140
1.0
102
RTVSPost2010PropOp39
 70
     1
102
RTVSPost2010Prop40
 90
        0
102
RTVSPost2010PropOp40
 70
     1
102
RTVSPost2010Prop41ColorIndex
 90
       18
102
RTVSPost2010Prop41ColorRGB
 90
        0
102
RTVSPost2010PropOp41
 70
     1
102
RTVSPost2010Prop42
 90
       50
102
RTVSPost2010PropOp42
 70
     1
102
RTVSPost2010Prop43
 90
        3
102
RTVSPost2010PropOp43
 70
     1
102
RTVSPost2010Prop44ColorIndex
 90
        5
102
RTVSPost2010Prop44ColorRGB
 90
      255
102
RTVSPost2010PropOp44
 70
     1
102
RTVSPost2010Prop45
280
     0
102
RTVSPost2010PropOp45
 70
     1
102
RTVSPost2010Prop46
 90
       50
102
RTVSPost2010PropOp46
 70
     1
102
RTVSPost2010Prop47
 90
       50
102
RTVSPost2010PropOp47
 70
     1
102
RTVSPost2010Prop48
 90
       50
102
RTVSPost2010PropOp48
 70
     1
102
RTVSPost2010Prop49
280
     0
102
RTVSPost2010PropOp49
 70
     1
102
RTVSPost2010Prop50
 90
       50
102
RTVSPost2010PropOp50
 70
     1
102
RTVSPost2010Prop51ColorIndex
 90
      256
102
RTVSPost2010Prop51ColorRGB
 90
-16777216
102
RTVSPost2010PropOp51
 70
     0
102
RTVSPost2010Prop52
140
1.0
102
RTVSPost2010PropOp52
 70
     0
102
RTVSPost2010Prop53
 90
        2
102
RTVSPost2010PropOp53
 70
     1
102
RTVSPost2010Prop54
  1
strokes_ogs.tif
102
RTVSPost2010PropOp54
 70
     1
102
RTVSPost2010Prop55
280
     0
102
RTVSPost2010PropOp55
 70
     1
102
RTVSPost2010Prop56
140
1.0
102
RTVSPost2010PropOp56
 70
     1
102
RTVSPost2010Prop57
140
1.0
102
RTVSPost2010PropOp57
 70
     1
102
RTVSPropertyOp0
 70
     1
102
RTVSPropertyOp1
 70
     1
102
RTVSPropertyOp2
 70
     1
102
RTVSPropertyOp3
 70
     1
102
RTVSPropertyOp4
 70
     1
102
RTVSPropertyOp5
 70
     1
102
RTVSPropertyOp6
 70
     1
102
RTVSPropertyOp7
 70
     1
102
RTVSPropertyOp8
 70
     1
102
RTVSPropertyOp9
 70
     1
102
RTVSPropertyOp10
 70
     1
102
RTVSPropertyOp11
 70
     1
102
RTVSPropertyOp12
 70
     1
102
RTVSPropertyOp13
 70
     1
102
RTVSPropertyOp14
 70
     1
102
RTVSPropertyOp15
 70
     1
102
RTVSPropertyOp16
 70
     1
102
RTVSPropertyOp17
 70
     1
102
RTVSPropertyOp18
 70
     1
102
RTVSPropertyOp19
 70
     1
102
RTVSPropertyOp20
 70
     1
102
RTVSPropertyOp21
 70
     1
102
RTVSPropertyOp22
 70
     1
102
RTVSPropertyOp23
 70
     1
102
RTVSPropertyOp24
 70
     1
102
RTVSPropertyOp25
 70
     1
102
RTVSPropertyOp26
 70
     1
102
RTVSPropertyOp27
 70
     1
102
RTVSPropertyOp28
 70
     1
102
RTVSPropertyOp29
 70
     1
102
RTVSPropertyOp30
 70
     1
102
RTVSPropertyOp31
 70
     1
102
RTVSPropertyOp32
 70
     1
102
RTVSPropertyOp33
 70
     1
102
RTVSPropertyOp34
 70
     1
102
RTVSPropertyOp35
 70
     1
102
RTVSPropertyOp36
 70
     1
102
RTVSPropertyOp37
 70
     1
102
RTVSPropertyOp38
 70
     1
102
RTVSPropertyOp39
 70
     1
102
RTVSPropertyOp40
 70
     1
102
RTVSPropertyOp41
 70
     1
102
RTVSPropertyOp42
 70
     1
102
RTVSPropertyOp43
 70
     1
102
RTVSPropertyOp44
 70
     1
102
RTVSPropertyOp45
 70
     1
102
RTVSPropertyOp46
 70
     1
102
RTVSPropertyOp47
 70
     1
102
RTVSPropertyOp48
 70
     1
102
RTVSPropertyOp49
 70
     1
102
RTVSPropertyOp50
 70
     1
102
RTVSPropertyOp51
 70
     0
102
RTVSPropertyOp52
 70
     0
102
RTVSPropertyOp53
 70
     1
102
RTVSPropertyOp54
 70
     1
102
RTVSPropertyOp55
 70
     1
102
RTVSPropertyOp56
 70
     1
102
RTVSPropertyOp57
 70
     1
102
RTVSPropertyOp58
 70
     1
102
RTVSPropertyOp59
 70
     1
102
RTVSPropertyOp60
 70
     1
102
RTVSPropertyOp61
 70
     1
102
RTVSPropertyOp62
 70
     1
  0
XRECORD
  5
B73
102
{ACAD_REACTORS
330
B72
102
}
330
B72
100
AcDbXrecord
280
     1
102
RTVSPost2010Prop28
280
     0
102
RTVSPost2010PropOp28
 70
     1
102
RTVSPost2010Prop29
280
     1
102
RTVSPost2010PropOp29
 70
     1
102
RTVSPost2010Prop30
280
     1
102
RTVSPost2010PropOp30
 70
     1
102
RTVSPost2010Prop31
280
     0
102
RTVSPost2010PropOp31
 70
     1
102
RTVSPost2010Prop32
280
     0
102
RTVSPost2010PropOp32
 70
     1
102
RTVSPost2010Prop33
280
     0
102
RTVSPost2010PropOp33
 70
     1
102
RTVSPost2010Prop34
280
     0
102
RTVSPost2010PropOp34
 70
     1
102
RTVSPost2010Prop35
280
     0
102
RTVSPost2010PropOp35
 70
     1
102
RTVSPost2010Prop36
280
     0
102
RTVSPost2010PropOp36
 70
     1
102
RTVSPost2010Prop37
 90
       50
102
RTVSPost2010PropOp37
 70
     1
102
RTVSPost2010Prop38
140
0.0
102
RTVSPost2010PropOp38
 70
     1
102
RTVSPost2010Prop39
140
1.0
102
RTVSPost2010PropOp39
 70
     1
102
RTVSPost2010Prop40
 90
        0
102
RTVSPost2010PropOp40
 70
     1
102
RTVSPost2010Prop41ColorIndex
 90
       18
102
RTVSPost2010Prop41ColorRGB
 90
        0
102
RTVSPost2010PropOp41
 70
     1
102
RTVSPost2010Prop42
 90
       50
102
RTVSPost2010PropOp42
 70
     1
102
RTVSPost2010Prop43
 90
        3
102
RTVSPost2010PropOp43
 70
     1
102
RTVSPost2010Prop44ColorIndex
 90
        5
102
RTVSPost2010Prop44ColorRGB
 90
      255
102
RTVSPost2010PropOp44
 70
     1
102
RTVSPost2010Prop45
280
     0
102
RTVSPost2010PropOp45
 70
     1
102
RTVSPost2010Prop46
 90
       50
102
RTVSPost2010PropOp46
 70
     1
102
RTVSPost2010Prop47
 90
       50
102
RTVSPost2010PropOp47
 70
     1
102
RTVSPost2010Prop48
 90
       50
102
RTVSPost2010PropOp48
 70
     1
102
RTVSPost2010Prop49
280
     0
102
RTVSPost2010PropOp49
 70
     1
102
RTVSPost2010Prop50
 90
       50
102
RTVSPost2010PropOp50
 70
     1
102
RTVSPost2010Prop51ColorIndex
 90
      256
102
RTVSPost2010Prop51ColorRGB
 90
-16777216
102
RTVSPost2010PropOp51
 70
     0
102
RTVSPost2010Prop52
140
1.0
102
RTVSPost2010PropOp52
 70
     0
102
RTVSPost2010Prop53
 90
        2
102
RTVSPost2010PropOp53
 70
     1
102
RTVSPost2010Prop54
  1
strokes_ogs.tif
102
RTVSPost2010PropOp54
 70
     1
102
RTVSPost2010Prop55
280
     0
102
RTVSPost2010PropOp55
 70
     1
102
RTVSPost2010Prop56
140
1.0
102
RTVSPost2010PropOp56
 70
     1
102
RTVSPost2010Prop57
140
1.0
102
RTVSPost2010PropOp57
 70
     1
102
RTVSPropertyOp0
 70
     1
102
RTVSPropertyOp1
 70
     1
102
RTVSPropertyOp2
 70
     1
102
RTVSPropertyOp3
 70
     1
102
RTVSPropertyOp4
 70
     1
102
RTVSPropertyOp5
 70
     1
102
RTVSPropertyOp6
 70
     1
102
RTVSPropertyOp7
 70
     1
102
RTVSPropertyOp8
 70
     1
102
RTVSPropertyOp9
 70
     1
102
RTVSPropertyOp10
 70
     1
102
RTVSPropertyOp11
 70
     1
102
RTVSPropertyOp12
 70
     1
102
RTVSPropertyOp13
 70
     1
102
RTVSPropertyOp14
 70
     1
102
RTVSPropertyOp15
 70
     1
102
RTVSPropertyOp16
 70
     1
102
RTVSPropertyOp17
 70
     1
102
RTVSPropertyOp18
 70
     1
102
RTVSPropertyOp19
 70
     1
102
RTVSPropertyOp20
 70
     1
102
RTVSPropertyOp21
 70
     1
102
RTVSPropertyOp22
 70
     1
102
RTVSPropertyOp23
 70
     1
102
RTVSPropertyOp24
 70
     1
102
RTVSPropertyOp25
 70
     1
102
RTVSPropertyOp26
 70
     1
102
RTVSPropertyOp27
 70
     1
102
RTVSPropertyOp28
 70
     1
102
RTVSPropertyOp29
 70
     1
102
RTVSPropertyOp30
 70
     1
102
RTVSPropertyOp31
 70
     1
102
RTVSPropertyOp32
 70
     1
102
RTVSPropertyOp33
 70
     1
102
RTVSPropertyOp34
 70
     1
102
RTVSPropertyOp35
 70
     1
102
RTVSPropertyOp36
 70
     1
102
RTVSPropertyOp37
 70
     1
102
RTVSPropertyOp38
 70
     1
102
RTVSPropertyOp39
 70
     1
102
RTVSPropertyOp40
 70
     1
102
RTVSPropertyOp41
 70
     1
102
RTVSPropertyOp42
 70
     1
102
RTVSPropertyOp43
 70
     1
102
RTVSPropertyOp44
 70
     1
102
RTVSPropertyOp45
 70
     1
102
RTVSPropertyOp46
 70
     1
102
RTVSPropertyOp47
 70
     1
102
RTVSPropertyOp48
 70
     1
102
RTVSPropertyOp49
 70
     1
102
RTVSPropertyOp50
 70
     1
102
RTVSPropertyOp51
 70
     0
102
RTVSPropertyOp52
 70
     0
102
RTVSPropertyOp53
 70
     1
102
RTVSPropertyOp54
 70
     1
102
RTVSPropertyOp55
 70
     1
102
RTVSPropertyOp56
 70
     1
102
RTVSPropertyOp57
 70
     1
102
RTVSPropertyOp58
 70
     1
102
RTVSPropertyOp59
 70
     1
102
RTVSPropertyOp60
 70
     1
102
RTVSPropertyOp61
 70
     1
102
RTVSPropertyOp62
 70
     1
  0
XRECORD
  5
B8F
102
{ACAD_REACTORS
330
B8E
102
}
330
B8E
100
AcDbXrecord
280
     1
102
RTVSPost2010Prop28
280
     0
102
RTVSPost2010PropOp28
 70
     1
102
RTVSPost2010Prop29
280
     1
102
RTVSPost2010PropOp29
 70
     1
102
RTVSPost2010Prop30
280
     1
102
RTVSPost2010PropOp30
 70
     1
102
RTVSPost2010Prop31
280
     0
102
RTVSPost2010PropOp31
 70
     1
102
RTVSPost2010Prop32
280
     0
102
RTVSPost2010PropOp32
 70
     1
102
RTVSPost2010Prop33
280
     0
102
RTVSPost2010PropOp33
 70
     1
102
RTVSPost2010Prop34
280
     0
102
RTVSPost2010PropOp34
 70
     1
102
RTVSPost2010Prop35
280
     0
102
RTVSPost2010PropOp35
 70
     1
102
RTVSPost2010Prop36
280
     0
102
RTVSPost2010PropOp36
 70
     1
102
RTVSPost2010Prop37
 90
       50
102
RTVSPost2010PropOp37
 70
     0
102
RTVSPost2010Prop38
140
0.0
102
RTVSPost2010PropOp38
 70
     0
102
RTVSPost2010Prop39
140
1.0
102
RTVSPost2010PropOp39
 70
     0
102
RTVSPost2010Prop40
 90
        0
102
RTVSPost2010PropOp40
 70
     0
102
RTVSPost2010Prop41ColorIndex
 90
       18
102
RTVSPost2010Prop41ColorRGB
 90
        0
102
RTVSPost2010PropOp41
 70
     0
102
RTVSPost2010Prop42
 90
       50
102
RTVSPost2010PropOp42
 70
     0
102
RTVSPost2010Prop43
 90
        3
102
RTVSPost2010PropOp43
 70
     0
102
RTVSPost2010Prop44ColorIndex
 90
        5
102
RTVSPost2010Prop44ColorRGB
 90
      255
102
RTVSPost2010PropOp44
 70
     0
102
RTVSPost2010Prop45
280
     0
102
RTVSPost2010PropOp45
 70
     1
102
RTVSPost2010Prop46
 90
       50
102
RTVSPost2010PropOp46
 70
     0
102
RTVSPost2010Prop47
 90
       50
102
RTVSPost2010PropOp47
 70
     0
102
RTVSPost2010Prop48
 90
       50
102
RTVSPost2010PropOp48
 70
     0
102
RTVSPost2010Prop49
280
     0
102
RTVSPost2010PropOp49
 70
     1
102
RTVSPost2010Prop50
 90
       50
102
RTVSPost2010PropOp50
 70
     0
102
RTVSPost2010Prop51ColorIndex
 90
      256
102
RTVSPost2010Prop51ColorRGB
 90
-16777216
102
RTVSPost2010PropOp51
 70
     0
102
RTVSPost2010Prop52
140
1.0
102
RTVSPost2010PropOp52
 70
     0
102
RTVSPost2010Prop53
 90
        2
102
RTVSPost2010PropOp53
 70
     0
102
RTVSPost2010Prop54
  1
strokes_ogs.tif
102
RTVSPost2010PropOp54
 70
     0
102
RTVSPost2010Prop55
280
     0
102
RTVSPost2010PropOp55
 70
     1
102
RTVSPost2010Prop56
140
1.0
102
RTVSPost2010PropOp56
 70
     0
102
RTVSPost2010Prop57
140
1.0
102
RTVSPost2010PropOp57
 70
     0
102
RTVSPropertyOp0
 70
     0
102
RTVSPropertyOp1
 70
     0
102
RTVSPropertyOp2
 70
     0
102
RTVSPropertyOp3
 70
     0
102
RTVSPropertyOp4
 70
     0
102
RTVSPropertyOp5
 70
     0
102
RTVSPropertyOp6
 70
     0
102
RTVSPropertyOp7
 70
     0
102
RTVSPropertyOp8
 70
     0
102
RTVSPropertyOp9
 70
     0
102
RTVSPropertyOp10
 70
     0
102
RTVSPropertyOp11
 70
     0
102
RTVSPropertyOp12
 70
     0
102
RTVSPropertyOp13
 70
     0
102
RTVSPropertyOp14
 70
     2
102
RTVSPropertyOp15
 70
     0
102
RTVSPropertyOp16
 70
     0
102
RTVSPropertyOp17
 70
     0
102
RTVSPropertyOp18
 70
     0
102
RTVSPropertyOp19
 70
     0
102
RTVSPropertyOp20
 70
     0
102
RTVSPropertyOp21
 70
     0
102
RTVSPropertyOp22
 70
     0
102
RTVSPropertyOp23
 70
     0
102
RTVSPropertyOp24
 70
     0
102
RTVSPropertyOp25
 70
     0
102
RTVSPropertyOp26
 70
     0
102
RTVSPropertyOp27
 70
     0
102
RTVSPropertyOp28
 70
     1
102
RTVSPropertyOp29
 70
     1
102
RTVSPropertyOp30
 70
     1
102
RTVSPropertyOp31
 70
     1
102
RTVSPropertyOp32
 70
     1
102
RTVSPropertyOp33
 70
     1
102
RTVSPropertyOp34
 70
     1
102
RTVSPropertyOp35
 70
     1
102
RTVSPropertyOp36
 70
     1
102
RTVSPropertyOp37
 70
     0
102
RTVSPropertyOp38
 70
     0
102
RTVSPropertyOp39
 70
     0
102
RTVSPropertyOp40
 70
     0
102
RTVSPropertyOp41
 70
     0
102
RTVSPropertyOp42
 70
     0
102
RTVSPropertyOp43
 70
     0
102
RTVSPropertyOp44
 70
     0
102
RTVSPropertyOp45
 70
     1
102
RTVSPropertyOp46
 70
     0
102
RTVSPropertyOp47
 70
     0
102
RTVSPropertyOp48
 70
     0
102
RTVSPropertyOp49
 70
     1
102
RTVSPropertyOp50
 70
     0
102
RTVSPropertyOp51
 70
     0
102
RTVSPropertyOp52
 70
     0
102
RTVSPropertyOp53
 70
     0
102
RTVSPropertyOp54
 70
     0
102
RTVSPropertyOp55
 70
     1
102
RTVSPropertyOp56
 70
     0
102
RTVSPropertyOp57
 70
     0
102
RTVSPropertyOp58
 70
     1
102
RTVSPropertyOp59
 70
     1
102
RTVSPropertyOp60
 70
     1
102
RTVSPropertyOp61
 70
     1
102
RTVSPropertyOp62
 70
     1
  0
XRECORD
  5
B7F
102
{ACAD_REACTORS
330
B7E
102
}
330
B7E
100
AcDbXrecord
280
     1
102
RTVSPost2010Prop28
280
     0
102
RTVSPost2010PropOp28
 70
     1
102
RTVSPost2010Prop29
280
     1
102
RTVSPost2010PropOp29
 70
     1
102
RTVSPost2010Prop30
280
     1
102
RTVSPost2010PropOp30
 70
     1
102
RTVSPost2010Prop31
280
     0
102
RTVSPost2010PropOp31
 70
     1
102
RTVSPost2010Prop32
280
     0
102
RTVSPost2010PropOp32
 70
     1
102
RTVSPost2010Prop33
280
     0
102
RTVSPost2010PropOp33
 70
     1
102
RTVSPost2010Prop34
280
     0
102
RTVSPost2010PropOp34
 70
     1
102
RTVSPost2010Prop35
280
     0
102
RTVSPost2010PropOp35
 70
     1
102
RTVSPost2010Prop36
280
     0
102
RTVSPost2010PropOp36
 70
     1
102
RTVSPost2010Prop37
 90
       50
102
RTVSPost2010PropOp37
 70
     1
102
RTVSPost2010Prop38
140
0.0
102
RTVSPost2010PropOp38
 70
     1
102
RTVSPost2010Prop39
140
1.0
102
RTVSPost2010PropOp39
 70
     1
102
RTVSPost2010Prop40
 90
        0
102
RTVSPost2010PropOp40
 70
     1
102
RTVSPost2010Prop41ColorIndex
 90
       18
102
RTVSPost2010Prop41ColorRGB
 90
        0
102
RTVSPost2010PropOp41
 70
     1
102
RTVSPost2010Prop42
 90
       50
102
RTVSPost2010PropOp42
 70
     1
102
RTVSPost2010Prop43
 90
        3
102
RTVSPost2010PropOp43
 70
     1
102
RTVSPost2010Prop44ColorIndex
 90
        5
102
RTVSPost2010Prop44ColorRGB
 90
      255
102
RTVSPost2010PropOp44
 70
     1
102
RTVSPost2010Prop45
280
     0
102
RTVSPost2010PropOp45
 70
     1
102
RTVSPost2010Prop46
 90
       50
102
RTVSPost2010PropOp46
 70
     1
102
RTVSPost2010Prop47
 90
       50
102
RTVSPost2010PropOp47
 70
     1
102
RTVSPost2010Prop48
 90
       50
102
RTVSPost2010PropOp48
 70
     1
102
RTVSPost2010Prop49
280
     0
102
RTVSPost2010PropOp49
 70
     1
102
RTVSPost2010Prop50
 90
       50
102
RTVSPost2010PropOp50
 70
     1
102
RTVSPost2010Prop51ColorIndex
 90
      256
102
RTVSPost2010Prop51ColorRGB
 90
-16777216
102
RTVSPost2010PropOp51
 70
     0
102
RTVSPost2010Prop52
140
1.0
102
RTVSPost2010PropOp52
 70
     0
102
RTVSPost2010Prop53
 90
        2
102
RTVSPost2010PropOp53
 70
     1
102
RTVSPost2010Prop54
  1
strokes_ogs.tif
102
RTVSPost2010PropOp54
 70
     1
102
RTVSPost2010Prop55
280
     0
102
RTVSPost2010PropOp55
 70
     1
102
RTVSPost2010Prop56
140
1.0
102
RTVSPost2010PropOp56
 70
     1
102
RTVSPost2010Prop57
140
1.0
102
RTVSPost2010PropOp57
 70
     1
102
RTVSPropertyOp0
 70
     1
102
RTVSPropertyOp1
 70
     1
102
RTVSPropertyOp2
 70
     1
102
RTVSPropertyOp3
 70
     1
102
RTVSPropertyOp4
 70
     1
102
RTVSPropertyOp5
 70
     1
102
RTVSPropertyOp6
 70
     1
102
RTVSPropertyOp7
 70
     1
102
RTVSPropertyOp8
 70
     1
102
RTVSPropertyOp9
 70
     1
102
RTVSPropertyOp10
 70
     1
102
RTVSPropertyOp11
 70
     1
102
RTVSPropertyOp12
 70
     1
102
RTVSPropertyOp13
 70
     1
102
RTVSPropertyOp14
 70
     1
102
RTVSPropertyOp15
 70
     1
102
RTVSPropertyOp16
 70
     1
102
RTVSPropertyOp17
 70
     1
102
RTVSPropertyOp18
 70
     1
102
RTVSPropertyOp19
 70
     1
102
RTVSPropertyOp20
 70
     1
102
RTVSPropertyOp21
 70
     1
102
RTVSPropertyOp22
 70
     1
102
RTVSPropertyOp23
 70
     1
102
RTVSPropertyOp24
 70
     1
102
RTVSPropertyOp25
 70
     1
102
RTVSPropertyOp26
 70
     1
102
RTVSPropertyOp27
 70
     1
102
RTVSPropertyOp28
 70
     1
102
RTVSPropertyOp29
 70
     1
102
RTVSPropertyOp30
 70
     1
102
RTVSPropertyOp31
 70
     1
102
RTVSPropertyOp32
 70
     1
102
RTVSPropertyOp33
 70
     1
102
RTVSPropertyOp34
 70
     1
102
RTVSPropertyOp35
 70
     1
102
RTVSPropertyOp36
 70
     1
102
RTVSPropertyOp37
 70
     1
102
RTVSPropertyOp38
 70
     1
102
RTVSPropertyOp39
 70
     1
102
RTVSPropertyOp40
 70
     1
102
RTVSPropertyOp41
 70
     1
102
RTVSPropertyOp42
 70
     1
102
RTVSPropertyOp43
 70
     1
102
RTVSPropertyOp44
 70
     1
102
RTVSPropertyOp45
 70
     1
102
RTVSPropertyOp46
 70
     1
102
RTVSPropertyOp47
 70
     1
102
RTVSPropertyOp48
 70
     1
102
RTVSPropertyOp49
 70
     1
102
RTVSPropertyOp50
 70
     1
102
RTVSPropertyOp51
 70
     0
102
RTVSPropertyOp52
 70
     0
102
RTVSPropertyOp53
 70
     1
102
RTVSPropertyOp54
 70
     1
102
RTVSPropertyOp55
 70
     1
102
RTVSPropertyOp56
 70
     1
102
RTVSPropertyOp57
 70
     1
102
RTVSPropertyOp58
 70
     1
102
RTVSPropertyOp59
 70
     1
102
RTVSPropertyOp60
 70
     1
102
RTVSPropertyOp61
 70
     1
102
RTVSPropertyOp62
 70
     1
  0
XRECORD
  5
B91
102
{ACAD_REACTORS
330
B90
102
}
330
B90
100
AcDbXrecord
280
     1
102
RTVSPost2010Prop28
280
     0
102
RTVSPost2010PropOp28
 70
     1
102
RTVSPost2010Prop29
280
     1
102
RTVSPost2010PropOp29
 70
     1
102
RTVSPost2010Prop30
280
     1
102
RTVSPost2010PropOp30
 70
     1
102
RTVSPost2010Prop31
280
     0
102
RTVSPost2010PropOp31
 70
     1
102
RTVSPost2010Prop32
280
     0
102
RTVSPost2010PropOp32
 70
     1
102
RTVSPost2010Prop33
280
     0
102
RTVSPost2010PropOp33
 70
     1
102
RTVSPost2010Prop34
280
     0
102
RTVSPost2010PropOp34
 70
     1
102
RTVSPost2010Prop35
280
     0
102
RTVSPost2010PropOp35
 70
     1
102
RTVSPost2010Prop36
280
     0
102
RTVSPost2010PropOp36
 70
     1
102
RTVSPost2010Prop37
 90
       50
102
RTVSPost2010PropOp37
 70
     0
102
RTVSPost2010Prop38
140
0.0
102
RTVSPost2010PropOp38
 70
     0
102
RTVSPost2010Prop39
140
1.0
102
RTVSPost2010PropOp39
 70
     0
102
RTVSPost2010Prop40
 90
        0
102
RTVSPost2010PropOp40
 70
     0
102
RTVSPost2010Prop41ColorIndex
 90
       18
102
RTVSPost2010Prop41ColorRGB
 90
        0
102
RTVSPost2010PropOp41
 70
     0
102
RTVSPost2010Prop42
 90
       50
102
RTVSPost2010PropOp42
 70
     0
102
RTVSPost2010Prop43
 90
        3
102
RTVSPost2010PropOp43
 70
     0
102
RTVSPost2010Prop44ColorIndex
 90
        5
102
RTVSPost2010Prop44ColorRGB
 90
      255
102
RTVSPost2010PropOp44
 70
     0
102
RTVSPost2010Prop45
280
     0
102
RTVSPost2010PropOp45
 70
     1
102
RTVSPost2010Prop46
 90
       50
102
RTVSPost2010PropOp46
 70
     0
102
RTVSPost2010Prop47
 90
       50
102
RTVSPost2010PropOp47
 70
     0
102
RTVSPost2010Prop48
 90
       50
102
RTVSPost2010PropOp48
 70
     0
102
RTVSPost2010Prop49
280
     0
102
RTVSPost2010PropOp49
 70
     1
102
RTVSPost2010Prop50
 90
       50
102
RTVSPost2010PropOp50
 70
     0
102
RTVSPost2010Prop51ColorIndex
 90
      256
102
RTVSPost2010Prop51ColorRGB
 90
-16777216
102
RTVSPost2010PropOp51
 70
     0
102
RTVSPost2010Prop52
140
1.0
102
RTVSPost2010PropOp52
 70
     0
102
RTVSPost2010Prop53
 90
        2
102
RTVSPost2010PropOp53
 70
     0
102
RTVSPost2010Prop54
  1
strokes_ogs.tif
102
RTVSPost2010PropOp54
 70
     0
102
RTVSPost2010Prop55
280
     0
102
RTVSPost2010PropOp55
 70
     1
102
RTVSPost2010Prop56
140
1.0
102
RTVSPost2010PropOp56
 70
     0
102
RTVSPost2010Prop57
140
1.0
102
RTVSPost2010PropOp57
 70
     0
102
RTVSPropertyOp0
 70
     0
102
RTVSPropertyOp1
 70
     0
102
RTVSPropertyOp2
 70
     0
102
RTVSPropertyOp3
 70
     0
102
RTVSPropertyOp4
 70
     0
102
RTVSPropertyOp5
 70
     0
102
RTVSPropertyOp6
 70
     0
102
RTVSPropertyOp7
 70
     0
102
RTVSPropertyOp8
 70
     0
102
RTVSPropertyOp9
 70
     0
102
RTVSPropertyOp10
 70
     0
102
RTVSPropertyOp11
 70
     0
102
RTVSPropertyOp12
 70
     0
102
RTVSPropertyOp13
 70
     0
102
RTVSPropertyOp14
 70
     2
102
RTVSPropertyOp15
 70
     0
102
RTVSPropertyOp16
 70
     0
102
RTVSPropertyOp17
 70
     0
102
RTVSPropertyOp18
 70
     0
102
RTVSPropertyOp19
 70
     0
102
RTVSPropertyOp20
 70
     0
102
RTVSPropertyOp21
 70
     0
102
RTVSPropertyOp22
 70
     0
102
RTVSPropertyOp23
 70
     0
102
RTVSPropertyOp24
 70
     0
102
RTVSPropertyOp25
 70
     0
102
RTVSPropertyOp26
 70
     0
102
RTVSPropertyOp27
 70
     0
102
RTVSPropertyOp28
 70
     1
102
RTVSPropertyOp29
 70
     1
102
RTVSPropertyOp30
 70
     1
102
RTVSPropertyOp31
 70
     1
102
RTVSPropertyOp32
 70
     1
102
RTVSPropertyOp33
 70
     1
102
RTVSPropertyOp34
 70
     1
102
RTVSPropertyOp35
 70
     1
102
RTVSPropertyOp36
 70
     1
102
RTVSPropertyOp37
 70
     0
102
RTVSPropertyOp38
 70
     0
102
RTVSPropertyOp39
 70
     0
102
RTVSPropertyOp40
 70
     0
102
RTVSPropertyOp41
 70
     0
102
RTVSPropertyOp42
 70
     0
102
RTVSPropertyOp43
 70
     0
102
RTVSPropertyOp44
 70
     0
102
RTVSPropertyOp45
 70
     1
102
RTVSPropertyOp46
 70
     0
102
RTVSPropertyOp47
 70
     0
102
RTVSPropertyOp48
 70
     0
102
RTVSPropertyOp49
 70
     1
102
RTVSPropertyOp50
 70
     0
102
RTVSPropertyOp51
 70
     0
102
RTVSPropertyOp52
 70
     0
102
RTVSPropertyOp53
 70
     0
102
RTVSPropertyOp54
 70
     0
102
RTVSPropertyOp55
 70
     1
102
RTVSPropertyOp56
 70
     0
102
RTVSPropertyOp57
 70
     0
102
RTVSPropertyOp58
 70
     1
102
RTVSPropertyOp59
 70
     1
102
RTVSPropertyOp60
 70
     1
102
RTVSPropertyOp61
 70
     1
102
RTVSPropertyOp62
 70
     1
  0
XRECORD
  5
B77
102
{ACAD_REACTORS
330
B76
102
}
330
B76
100
AcDbXrecord
280
     1
102
RTVSPost2010Prop28
280
     0
102
RTVSPost2010PropOp28
 70
     1
102
RTVSPost2010Prop29
280
     1
102
RTVSPost2010PropOp29
 70
     1
102
RTVSPost2010Prop30
280
     1
102
RTVSPost2010PropOp30
 70
     1
102
RTVSPost2010Prop31
280
     0
102
RTVSPost2010PropOp31
 70
     1
102
RTVSPost2010Prop32
280
     0
102
RTVSPost2010PropOp32
 70
     1
102
RTVSPost2010Prop33
280
     0
102
RTVSPost2010PropOp33
 70
     1
102
RTVSPost2010Prop34
280
     0
102
RTVSPost2010PropOp34
 70
     1
102
RTVSPost2010Prop35
280
     0
102
RTVSPost2010PropOp35
 70
     1
102
RTVSPost2010Prop36
280
     0
102
RTVSPost2010PropOp36
 70
     1
102
RTVSPost2010Prop37
 90
       50
102
RTVSPost2010PropOp37
 70
     1
102
RTVSPost2010Prop38
140
0.0
102
RTVSPost2010PropOp38
 70
     1
102
RTVSPost2010Prop39
140
1.0
102
RTVSPost2010PropOp39
 70
     1
102
RTVSPost2010Prop40
 90
        0
102
RTVSPost2010PropOp40
 70
     1
102
RTVSPost2010Prop41ColorIndex
 90
       18
102
RTVSPost2010Prop41ColorRGB
 90
        0
102
RTVSPost2010PropOp41
 70
     1
102
RTVSPost2010Prop42
 90
       50
102
RTVSPost2010PropOp42
 70
     1
102
RTVSPost2010Prop43
 90
        3
102
RTVSPost2010PropOp43
 70
     1
102
RTVSPost2010Prop44ColorIndex
 90
        5
102
RTVSPost2010Prop44ColorRGB
 90
      255
102
RTVSPost2010PropOp44
 70
     1
102
RTVSPost2010Prop45
280
     0
102
RTVSPost2010PropOp45
 70
     1
102
RTVSPost2010Prop46
 90
       50
102
RTVSPost2010PropOp46
 70
     1
102
RTVSPost2010Prop47
 90
       50
102
RTVSPost2010PropOp47
 70
     1
102
RTVSPost2010Prop48
 90
       50
102
RTVSPost2010PropOp48
 70
     1
102
RTVSPost2010Prop49
280
     0
102
RTVSPost2010PropOp49
 70
     1
102
RTVSPost2010Prop50
 90
       50
102
RTVSPost2010PropOp50
 70
     1
102
RTVSPost2010Prop51ColorIndex
 90
      256
102
RTVSPost2010Prop51ColorRGB
 90
-16777216
102
RTVSPost2010PropOp51
 70
     0
102
RTVSPost2010Prop52
140
1.0
102
RTVSPost2010PropOp52
 70
     0
102
RTVSPost2010Prop53
 90
        2
102
RTVSPost2010PropOp53
 70
     1
102
RTVSPost2010Prop54
  1
strokes_ogs.tif
102
RTVSPost2010PropOp54
 70
     1
102
RTVSPost2010Prop55
280
     0
102
RTVSPost2010PropOp55
 70
     1
102
RTVSPost2010Prop56
140
1.0
102
RTVSPost2010PropOp56
 70
     1
102
RTVSPost2010Prop57
140
1.0
102
RTVSPost2010PropOp57
 70
     1
102
RTVSPropertyOp0
 70
     1
102
RTVSPropertyOp1
 70
     1
102
RTVSPropertyOp2
 70
     1
102
RTVSPropertyOp3
 70
     1
102
RTVSPropertyOp4
 70
     1
102
RTVSPropertyOp5
 70
     1
102
RTVSPropertyOp6
 70
     1
102
RTVSPropertyOp7
 70
     1
102
RTVSPropertyOp8
 70
     1
102
RTVSPropertyOp9
 70
     1
102
RTVSPropertyOp10
 70
     1
102
RTVSPropertyOp11
 70
     1
102
RTVSPropertyOp12
 70
     1
102
RTVSPropertyOp13
 70
     1
102
RTVSPropertyOp14
 70
     1
102
RTVSPropertyOp15
 70
     1
102
RTVSPropertyOp16
 70
     1
102
RTVSPropertyOp17
 70
     1
102
RTVSPropertyOp18
 70
     1
102
RTVSPropertyOp19
 70
     1
102
RTVSPropertyOp20
 70
     1
102
RTVSPropertyOp21
 70
     1
102
RTVSPropertyOp22
 70
     1
102
RTVSPropertyOp23
 70
     1
102
RTVSPropertyOp24
 70
     1
102
RTVSPropertyOp25
 70
     1
102
RTVSPropertyOp26
 70
     1
102
RTVSPropertyOp27
 70
     1
102
RTVSPropertyOp28
 70
     1
102
RTVSPropertyOp29
 70
     1
102
RTVSPropertyOp30
 70
     1
102
RTVSPropertyOp31
 70
     1
102
RTVSPropertyOp32
 70
     1
102
RTVSPropertyOp33
 70
     1
102
RTVSPropertyOp34
 70
     1
102
RTVSPropertyOp35
 70
     1
102
RTVSPropertyOp36
 70
     1
102
RTVSPropertyOp37
 70
     1
102
RTVSPropertyOp38
 70
     1
102
RTVSPropertyOp39
 70
     1
102
RTVSPropertyOp40
 70
     1
102
RTVSPropertyOp41
 70
     1
102
RTVSPropertyOp42
 70
     1
102
RTVSPropertyOp43
 70
     1
102
RTVSPropertyOp44
 70
     1
102
RTVSPropertyOp45
 70
     1
102
RTVSPropertyOp46
 70
     1
102
RTVSPropertyOp47
 70
     1
102
RTVSPropertyOp48
 70
     1
102
RTVSPropertyOp49
 70
     1
102
RTVSPropertyOp50
 70
     1
102
RTVSPropertyOp51
 70
     0
102
RTVSPropertyOp52
 70
     0
102
RTVSPropertyOp53
 70
     1
102
RTVSPropertyOp54
 70
     1
102
RTVSPropertyOp55
 70
     1
102
RTVSPropertyOp56
 70
     1
102
RTVSPropertyOp57
 70
     1
102
RTVSPropertyOp58
 70
     1
102
RTVSPropertyOp59
 70
     1
102
RTVSPropertyOp60
 70
     1
102
RTVSPropertyOp61
 70
     1
102
RTVSPropertyOp62
 70
     1
  0
XRECORD
  5
B8D
102
{ACAD_REACTORS
330
B8C
102
}
330
B8C
100
AcDbXrecord
280
     1
102
RTVSPost2010Prop28
280
     0
102
RTVSPost2010PropOp28
 70
     1
102
RTVSPost2010Prop29
280
     1
102
RTVSPost2010PropOp29
 70
     1
102
RTVSPost2010Prop30
280
     1
102
RTVSPost2010PropOp30
 70
     1
102
RTVSPost2010Prop31
280
     0
102
RTVSPost2010PropOp31
 70
     1
102
RTVSPost2010Prop32
280
     0
102
RTVSPost2010PropOp32
 70
     1
102
RTVSPost2010Prop33
280
     0
102
RTVSPost2010PropOp33
 70
     1
102
RTVSPost2010Prop34
280
     0
102
RTVSPost2010PropOp34
 70
     1
102
RTVSPost2010Prop35
280
     0
102
RTVSPost2010PropOp35
 70
     1
102
RTVSPost2010Prop36
280
     0
102
RTVSPost2010PropOp36
 70
     1
102
RTVSPost2010Prop37
 90
       50
102
RTVSPost2010PropOp37
 70
     1
102
RTVSPost2010Prop38
140
0.0
102
RTVSPost2010PropOp38
 70
     1
102
RTVSPost2010Prop39
140
1.0
102
RTVSPost2010PropOp39
 70
     1
102
RTVSPost2010Prop40
 90
        0
102
RTVSPost2010PropOp40
 70
     1
102
RTVSPost2010Prop41ColorIndex
 90
       18
102
RTVSPost2010Prop41ColorRGB
 90
        0
102
RTVSPost2010PropOp41
 70
     1
102
RTVSPost2010Prop42
 90
       50
102
RTVSPost2010PropOp42
 70
     1
102
RTVSPost2010Prop43
 90
        3
102
RTVSPost2010PropOp43
 70
     1
102
RTVSPost2010Prop44ColorIndex
 90
        5
102
RTVSPost2010Prop44ColorRGB
 90
      255
102
RTVSPost2010PropOp44
 70
     1
102
RTVSPost2010Prop45
280
     0
102
RTVSPost2010PropOp45
 70
     1
102
RTVSPost2010Prop46
 90
       50
102
RTVSPost2010PropOp46
 70
     1
102
RTVSPost2010Prop47
 90
       50
102
RTVSPost2010PropOp47
 70
     1
102
RTVSPost2010Prop48
 90
       50
102
RTVSPost2010PropOp48
 70
     1
102
RTVSPost2010Prop49
280
     0
102
RTVSPost2010PropOp49
 70
     1
102
RTVSPost2010Prop50
 90
       50
102
RTVSPost2010PropOp50
 70
     1
102
RTVSPost2010Prop51ColorIndex
 90
      256
102
RTVSPost2010Prop51ColorRGB
 90
-16777216
102
RTVSPost2010PropOp51
 70
     0
102
RTVSPost2010Prop52
140
1.0
102
RTVSPost2010PropOp52
 70
     0
102
RTVSPost2010Prop53
 90
        2
102
RTVSPost2010PropOp53
 70
     1
102
RTVSPost2010Prop54
  1
strokes_ogs.tif
102
RTVSPost2010PropOp54
 70
     1
102
RTVSPost2010Prop55
280
     0
102
RTVSPost2010PropOp55
 70
     1
102
RTVSPost2010Prop56
140
1.0
102
RTVSPost2010PropOp56
 70
     1
102
RTVSPost2010Prop57
140
1.0
102
RTVSPost2010PropOp57
 70
     1
102
RTVSPropertyOp0
 70
     1
102
RTVSPropertyOp1
 70
     1
102
RTVSPropertyOp2
 70
     1
102
RTVSPropertyOp3
 70
     1
102
RTVSPropertyOp4
 70
     1
102
RTVSPropertyOp5
 70
     1
102
RTVSPropertyOp6
 70
     1
102
RTVSPropertyOp7
 70
     1
102
RTVSPropertyOp8
 70
     1
102
RTVSPropertyOp9
 70
     1
102
RTVSPropertyOp10
 70
     1
102
RTVSPropertyOp11
 70
     1
102
RTVSPropertyOp12
 70
     1
102
RTVSPropertyOp13
 70
     1
102
RTVSPropertyOp14
 70
     1
102
RTVSPropertyOp15
 70
     1
102
RTVSPropertyOp16
 70
     1
102
RTVSPropertyOp17
 70
     1
102
RTVSPropertyOp18
 70
     1
102
RTVSPropertyOp19
 70
     1
102
RTVSPropertyOp20
 70
     1
102
RTVSPropertyOp21
 70
     1
102
RTVSPropertyOp22
 70
     1
102
RTVSPropertyOp23
 70
     1
102
RTVSPropertyOp24
 70
     1
102
RTVSPropertyOp25
 70
     1
102
RTVSPropertyOp26
 70
     1
102
RTVSPropertyOp27
 70
     1
102
RTVSPropertyOp28
 70
     1
102
RTVSPropertyOp29
 70
     1
102
RTVSPropertyOp30
 70
     1
102
RTVSPropertyOp31
 70
     1
102
RTVSPropertyOp32
 70
     1
102
RTVSPropertyOp33
 70
     1
102
RTVSPropertyOp34
 70
     1
102
RTVSPropertyOp35
 70
     1
102
RTVSPropertyOp36
 70
     1
102
RTVSPropertyOp37
 70
     1
102
RTVSPropertyOp38
 70
     1
102
RTVSPropertyOp39
 70
     1
102
RTVSPropertyOp40
 70
     1
102
RTVSPropertyOp41
 70
     1
102
RTVSPropertyOp42
 70
     1
102
RTVSPropertyOp43
 70
     1
102
RTVSPropertyOp44
 70
     1
102
RTVSPropertyOp45
 70
     1
102
RTVSPropertyOp46
 70
     1
102
RTVSPropertyOp47
 70
     1
102
RTVSPropertyOp48
 70
     1
102
RTVSPropertyOp49
 70
     1
102
RTVSPropertyOp50
 70
     1
102
RTVSPropertyOp51
 70
     0
102
RTVSPropertyOp52
 70
     0
102
RTVSPropertyOp53
 70
     1
102
RTVSPropertyOp54
 70
     1
102
RTVSPropertyOp55
 70
     1
102
RTVSPropertyOp56
 70
     1
102
RTVSPropertyOp57
 70
     1
102
RTVSPropertyOp58
 70
     1
102
RTVSPropertyOp59
 70
     1
102
RTVSPropertyOp60
 70
     1
102
RTVSPropertyOp61
 70
     1
102
RTVSPropertyOp62
 70
     1
  0
XRECORD
  5
B8B
102
{ACAD_REACTORS
330
B8A
102
}
330
B8A
100
AcDbXrecord
280
     1
102
RTVSPost2010Prop28
280
     0
102
RTVSPost2010PropOp28
 70
     1
102
RTVSPost2010Prop29
280
     1
102
RTVSPost2010PropOp29
 70
     1
102
RTVSPost2010Prop30
280
     1
102
RTVSPost2010PropOp30
 70
     1
102
RTVSPost2010Prop31
280
     0
102
RTVSPost2010PropOp31
 70
     1
102
RTVSPost2010Prop32
280
     0
102
RTVSPost2010PropOp32
 70
     1
102
RTVSPost2010Prop33
280
     0
102
RTVSPost2010PropOp33
 70
     1
102
RTVSPost2010Prop34
280
     0
102
RTVSPost2010PropOp34
 70
     1
102
RTVSPost2010Prop35
280
     0
102
RTVSPost2010PropOp35
 70
     1
102
RTVSPost2010Prop36
280
     0
102
RTVSPost2010PropOp36
 70
     1
102
RTVSPost2010Prop37
 90
       50
102
RTVSPost2010PropOp37
 70
     1
102
RTVSPost2010Prop38
140
0.0
102
RTVSPost2010PropOp38
 70
     1
102
RTVSPost2010Prop39
140
1.0
102
RTVSPost2010PropOp39
 70
     1
102
RTVSPost2010Prop40
 90
        0
102
RTVSPost2010PropOp40
 70
     1
102
RTVSPost2010Prop41ColorIndex
 90
       18
102
RTVSPost2010Prop41ColorRGB
 90
        0
102
RTVSPost2010PropOp41
 70
     1
102
RTVSPost2010Prop42
 90
       50
102
RTVSPost2010PropOp42
 70
     1
102
RTVSPost2010Prop43
 90
        3
102
RTVSPost2010PropOp43
 70
     1
102
RTVSPost2010Prop44ColorIndex
 90
        5
102
RTVSPost2010Prop44ColorRGB
 90
      255
102
RTVSPost2010PropOp44
 70
     1
102
RTVSPost2010Prop45
280
     0
102
RTVSPost2010PropOp45
 70
     1
102
RTVSPost2010Prop46
 90
       50
102
RTVSPost2010PropOp46
 70
     1
102
RTVSPost2010Prop47
 90
       50
102
RTVSPost2010PropOp47
 70
     1
102
RTVSPost2010Prop48
 90
       50
102
RTVSPost2010PropOp48
 70
     1
102
RTVSPost2010Prop49
280
     0
102
RTVSPost2010PropOp49
 70
     1
102
RTVSPost2010Prop50
 90
       50
102
RTVSPost2010PropOp50
 70
     1
102
RTVSPost2010Prop51ColorIndex
 90
      256
102
RTVSPost2010Prop51ColorRGB
 90
-16777216
102
RTVSPost2010PropOp51
 70
     0
102
RTVSPost2010Prop52
140
1.0
102
RTVSPost2010PropOp52
 70
     0
102
RTVSPost2010Prop53
 90
        2
102
RTVSPost2010PropOp53
 70
     1
102
RTVSPost2010Prop54
  1
strokes_ogs.tif
102
RTVSPost2010PropOp54
 70
     1
102
RTVSPost2010Prop55
280
     0
102
RTVSPost2010PropOp55
 70
     1
102
RTVSPost2010Prop56
140
1.0
102
RTVSPost2010PropOp56
 70
     1
102
RTVSPost2010Prop57
140
1.0
102
RTVSPost2010PropOp57
 70
     1
102
RTVSPropertyOp0
 70
     1
102
RTVSPropertyOp1
 70
     1
102
RTVSPropertyOp2
 70
     1
102
RTVSPropertyOp3
 70
     1
102
RTVSPropertyOp4
 70
     1
102
RTVSPropertyOp5
 70
     1
102
RTVSPropertyOp6
 70
     1
102
RTVSPropertyOp7
 70
     1
102
RTVSPropertyOp8
 70
     1
102
RTVSPropertyOp9
 70
     1
102
RTVSPropertyOp10
 70
     1
102
RTVSPropertyOp11
 70
     1
102
RTVSPropertyOp12
 70
     1
102
RTVSPropertyOp13
 70
     1
102
RTVSPropertyOp14
 70
     1
102
RTVSPropertyOp15
 70
     1
102
RTVSPropertyOp16
 70
     1
102
RTVSPropertyOp17
 70
     1
102
RTVSPropertyOp18
 70
     1
102
RTVSPropertyOp19
 70
     1
102
RTVSPropertyOp20
 70
     1
102
RTVSPropertyOp21
 70
     1
102
RTVSPropertyOp22
 70
     1
102
RTVSPropertyOp23
 70
     1
102
RTVSPropertyOp24
 70
     1
102
RTVSPropertyOp25
 70
     1
102
RTVSPropertyOp26
 70
     1
102
RTVSPropertyOp27
 70
     1
102
RTVSPropertyOp28
 70
     1
102
RTVSPropertyOp29
 70
     1
102
RTVSPropertyOp30
 70
     1
102
RTVSPropertyOp31
 70
     1
102
RTVSPropertyOp32
 70
     1
102
RTVSPropertyOp33
 70
     1
102
RTVSPropertyOp34
 70
     1
102
RTVSPropertyOp35
 70
     1
102
RTVSPropertyOp36
 70
     1
102
RTVSPropertyOp37
 70
     1
102
RTVSPropertyOp38
 70
     1
102
RTVSPropertyOp39
 70
     1
102
RTVSPropertyOp40
 70
     1
102
RTVSPropertyOp41
 70
     1
102
RTVSPropertyOp42
 70
     1
102
RTVSPropertyOp43
 70
     1
102
RTVSPropertyOp44
 70
     1
102
RTVSPropertyOp45
 70
     1
102
RTVSPropertyOp46
 70
     1
102
RTVSPropertyOp47
 70
     1
102
RTVSPropertyOp48
 70
     1
102
RTVSPropertyOp49
 70
     1
102
RTVSPropertyOp50
 70
     1
102
RTVSPropertyOp51
 70
     0
102
RTVSPropertyOp52
 70
     0
102
RTVSPropertyOp53
 70
     1
102
RTVSPropertyOp54
 70
     1
102
RTVSPropertyOp55
 70
     1
102
RTVSPropertyOp56
 70
     1
102
RTVSPropertyOp57
 70
     1
102
RTVSPropertyOp58
 70
     1
102
RTVSPropertyOp59
 70
     1
102
RTVSPropertyOp60
 70
     1
102
RTVSPropertyOp61
 70
     1
102
RTVSPropertyOp62
 70
     1
  0
XRECORD
  5
B85
102
{ACAD_REACTORS
330
B84
102
}
330
B84
100
AcDbXrecord
280
     1
102
RTVSPost2010Prop28
280
     0
102
RTVSPost2010PropOp28
 70
     1
102
RTVSPost2010Prop29
280
     1
102
RTVSPost2010PropOp29
 70
     1
102
RTVSPost2010Prop30
280
     1
102
RTVSPost2010PropOp30
 70
     1
102
RTVSPost2010Prop31
280
     0
102
RTVSPost2010PropOp31
 70
     1
102
RTVSPost2010Prop32
280
     0
102
RTVSPost2010PropOp32
 70
     1
102
RTVSPost2010Prop33
280
     0
102
RTVSPost2010PropOp33
 70
     1
102
RTVSPost2010Prop34
280
     0
102
RTVSPost2010PropOp34
 70
     1
102
RTVSPost2010Prop35
280
     0
102
RTVSPost2010PropOp35
 70
     1
102
RTVSPost2010Prop36
280
     0
102
RTVSPost2010PropOp36
 70
     1
102
RTVSPost2010Prop37
 90
       50
102
RTVSPost2010PropOp37
 70
     1
102
RTVSPost2010Prop38
140
0.0
102
RTVSPost2010PropOp38
 70
     1
102
RTVSPost2010Prop39
140
1.0
102
RTVSPost2010PropOp39
 70
     1
102
RTVSPost2010Prop40
 90
        0
102
RTVSPost2010PropOp40
 70
     1
102
RTVSPost2010Prop41ColorIndex
 90
       18
102
RTVSPost2010Prop41ColorRGB
 90
        0
102
RTVSPost2010PropOp41
 70
     1
102
RTVSPost2010Prop42
 90
       50
102
RTVSPost2010PropOp42
 70
     1
102
RTVSPost2010Prop43
 90
        3
102
RTVSPost2010PropOp43
 70
     1
102
RTVSPost2010Prop44ColorIndex
 90
        5
102
RTVSPost2010Prop44ColorRGB
 90
      255
102
RTVSPost2010PropOp44
 70
     1
102
RTVSPost2010Prop45
280
     0
102
RTVSPost2010PropOp45
 70
     1
102
RTVSPost2010Prop46
 90
       50
102
RTVSPost2010PropOp46
 70
     1
102
RTVSPost2010Prop47
 90
       50
102
RTVSPost2010PropOp47
 70
     1
102
RTVSPost2010Prop48
 90
       50
102
RTVSPost2010PropOp48
 70
     1
102
RTVSPost2010Prop49
280
     0
102
RTVSPost2010PropOp49
 70
     1
102
RTVSPost2010Prop50
 90
       50
102
RTVSPost2010PropOp50
 70
     1
102
RTVSPost2010Prop51ColorIndex
 90
      256
102
RTVSPost2010Prop51ColorRGB
 90
-16777216
102
RTVSPost2010PropOp51
 70
     0
102
RTVSPost2010Prop52
140
1.0
102
RTVSPost2010PropOp52
 70
     0
102
RTVSPost2010Prop53
 90
        2
102
RTVSPost2010PropOp53
 70
     1
102
RTVSPost2010Prop54
  1
strokes_ogs.tif
102
RTVSPost2010PropOp54
 70
     1
102
RTVSPost2010Prop55
280
     0
102
RTVSPost2010PropOp55
 70
     1
102
RTVSPost2010Prop56
140
1.0
102
RTVSPost2010PropOp56
 70
     1
102
RTVSPost2010Prop57
140
1.0
102
RTVSPost2010PropOp57
 70
     1
102
RTVSPropertyOp0
 70
     1
102
RTVSPropertyOp1
 70
     1
102
RTVSPropertyOp2
 70
     1
102
RTVSPropertyOp3
 70
     1
102
RTVSPropertyOp4
 70
     1
102
RTVSPropertyOp5
 70
     1
102
RTVSPropertyOp6
 70
     1
102
RTVSPropertyOp7
 70
     1
102
RTVSPropertyOp8
 70
     1
102
RTVSPropertyOp9
 70
     1
102
RTVSPropertyOp10
 70
     1
102
RTVSPropertyOp11
 70
     1
102
RTVSPropertyOp12
 70
     1
102
RTVSPropertyOp13
 70
     1
102
RTVSPropertyOp14
 70
     1
102
RTVSPropertyOp15
 70
     1
102
RTVSPropertyOp16
 70
     1
102
RTVSPropertyOp17
 70
     1
102
RTVSPropertyOp18
 70
     1
102
RTVSPropertyOp19
 70
     1
102
RTVSPropertyOp20
 70
     1
102
RTVSPropertyOp21
 70
     1
102
RTVSPropertyOp22
 70
     1
102
RTVSPropertyOp23
 70
     1
102
RTVSPropertyOp24
 70
     1
102
RTVSPropertyOp25
 70
     1
102
RTVSPropertyOp26
 70
     1
102
RTVSPropertyOp27
 70
     1
102
RTVSPropertyOp28
 70
     1
102
RTVSPropertyOp29
 70
     1
102
RTVSPropertyOp30
 70
     1
102
RTVSPropertyOp31
 70
     1
102
RTVSPropertyOp32
 70
     1
102
RTVSPropertyOp33
 70
     1
102
RTVSPropertyOp34
 70
     1
102
RTVSPropertyOp35
 70
     1
102
RTVSPropertyOp36
 70
     1
102
RTVSPropertyOp37
 70
     1
102
RTVSPropertyOp38
 70
     1
102
RTVSPropertyOp39
 70
     1
102
RTVSPropertyOp40
 70
     1
102
RTVSPropertyOp41
 70
     1
102
RTVSPropertyOp42
 70
     1
102
RTVSPropertyOp43
 70
     1
102
RTVSPropertyOp44
 70
     1
102
RTVSPropertyOp45
 70
     1
102
RTVSPropertyOp46
 70
     1
102
RTVSPropertyOp47
 70
     1
102
RTVSPropertyOp48
 70
     1
102
RTVSPropertyOp49
 70
     1
102
RTVSPropertyOp50
 70
     1
102
RTVSPropertyOp51
 70
     0
102
RTVSPropertyOp52
 70
     0
102
RTVSPropertyOp53
 70
     1
102
RTVSPropertyOp54
 70
     1
102
RTVSPropertyOp55
 70
     1
102
RTVSPropertyOp56
 70
     1
102
RTVSPropertyOp57
 70
     1
102
RTVSPropertyOp58
 70
     1
102
RTVSPropertyOp59
 70
     1
102
RTVSPropertyOp60
 70
     1
102
RTVSPropertyOp61
 70
     1
102
RTVSPropertyOp62
 70
     1
  0
XRECORD
  5
B87
102
{ACAD_REACTORS
330
B86
102
}
330
B86
100
AcDbXrecord
280
     1
102
RTVSPost2010Prop28
280
     0
102
RTVSPost2010PropOp28
 70
     1
102
RTVSPost2010Prop29
280
     1
102
RTVSPost2010PropOp29
 70
     1
102
RTVSPost2010Prop30
280
     1
102
RTVSPost2010PropOp30
 70
     1
102
RTVSPost2010Prop31
280
     0
102
RTVSPost2010PropOp31
 70
     1
102
RTVSPost2010Prop32
280
     0
102
RTVSPost2010PropOp32
 70
     1
102
RTVSPost2010Prop33
280
     0
102
RTVSPost2010PropOp33
 70
     1
102
RTVSPost2010Prop34
280
     0
102
RTVSPost2010PropOp34
 70
     1
102
RTVSPost2010Prop35
280
     0
102
RTVSPost2010PropOp35
 70
     1
102
RTVSPost2010Prop36
280
     0
102
RTVSPost2010PropOp36
 70
     1
102
RTVSPost2010Prop37
 90
       50
102
RTVSPost2010PropOp37
 70
     1
102
RTVSPost2010Prop38
140
0.0
102
RTVSPost2010PropOp38
 70
     1
102
RTVSPost2010Prop39
140
1.0
102
RTVSPost2010PropOp39
 70
     1
102
RTVSPost2010Prop40
 90
        0
102
RTVSPost2010PropOp40
 70
     1
102
RTVSPost2010Prop41ColorIndex
 90
       18
102
RTVSPost2010Prop41ColorRGB
 90
        0
102
RTVSPost2010PropOp41
 70
     1
102
RTVSPost2010Prop42
 90
       50
102
RTVSPost2010PropOp42
 70
     1
102
RTVSPost2010Prop43
 90
        3
102
RTVSPost2010PropOp43
 70
     1
102
RTVSPost2010Prop44ColorIndex
 90
        5
102
RTVSPost2010Prop44ColorRGB
 90
      255
102
RTVSPost2010PropOp44
 70
     1
102
RTVSPost2010Prop45
280
     0
102
RTVSPost2010PropOp45
 70
     1
102
RTVSPost2010Prop46
 90
       50
102
RTVSPost2010PropOp46
 70
     1
102
RTVSPost2010Prop47
 90
       50
102
RTVSPost2010PropOp47
 70
     1
102
RTVSPost2010Prop48
 90
       50
102
RTVSPost2010PropOp48
 70
     1
102
RTVSPost2010Prop49
280
     0
102
RTVSPost2010PropOp49
 70
     1
102
RTVSPost2010Prop50
 90
       50
102
RTVSPost2010PropOp50
 70
     1
102
RTVSPost2010Prop51ColorIndex
 90
      256
102
RTVSPost2010Prop51ColorRGB
 90
-16777216
102
RTVSPost2010PropOp51
 70
     0
102
RTVSPost2010Prop52
140
1.0
102
RTVSPost2010PropOp52
 70
     0
102
RTVSPost2010Prop53
 90
        2
102
RTVSPost2010PropOp53
 70
     1
102
RTVSPost2010Prop54
  1
strokes_ogs.tif
102
RTVSPost2010PropOp54
 70
     1
102
RTVSPost2010Prop55
280
     0
102
RTVSPost2010PropOp55
 70
     1
102
RTVSPost2010Prop56
140
1.0
102
RTVSPost2010PropOp56
 70
     1
102
RTVSPost2010Prop57
140
1.0
102
RTVSPost2010PropOp57
 70
     1
102
RTVSPropertyOp0
 70
     1
102
RTVSPropertyOp1
 70
     1
102
RTVSPropertyOp2
 70
     1
102
RTVSPropertyOp3
 70
     1
102
RTVSPropertyOp4
 70
     1
102
RTVSPropertyOp5
 70
     1
102
RTVSPropertyOp6
 70
     1
102
RTVSPropertyOp7
 70
     1
102
RTVSPropertyOp8
 70
     1
102
RTVSPropertyOp9
 70
     1
102
RTVSPropertyOp10
 70
     1
102
RTVSPropertyOp11
 70
     1
102
RTVSPropertyOp12
 70
     1
102
RTVSPropertyOp13
 70
     1
102
RTVSPropertyOp14
 70
     1
102
RTVSPropertyOp15
 70
     1
102
RTVSPropertyOp16
 70
     1
102
RTVSPropertyOp17
 70
     1
102
RTVSPropertyOp18
 70
     1
102
RTVSPropertyOp19
 70
     1
102
RTVSPropertyOp20
 70
     1
102
RTVSPropertyOp21
 70
     1
102
RTVSPropertyOp22
 70
     1
102
RTVSPropertyOp23
 70
     1
102
RTVSPropertyOp24
 70
     1
102
RTVSPropertyOp25
 70
     1
102
RTVSPropertyOp26
 70
     1
102
RTVSPropertyOp27
 70
     1
102
RTVSPropertyOp28
 70
     1
102
RTVSPropertyOp29
 70
     1
102
RTVSPropertyOp30
 70
     1
102
RTVSPropertyOp31
 70
     1
102
RTVSPropertyOp32
 70
     1
102
RTVSPropertyOp33
 70
     1
102
RTVSPropertyOp34
 70
     1
102
RTVSPropertyOp35
 70
     1
102
RTVSPropertyOp36
 70
     1
102
RTVSPropertyOp37
 70
     1
102
RTVSPropertyOp38
 70
     1
102
RTVSPropertyOp39
 70
     1
102
RTVSPropertyOp40
 70
     1
102
RTVSPropertyOp41
 70
     1
102
RTVSPropertyOp42
 70
     1
102
RTVSPropertyOp43
 70
     1
102
RTVSPropertyOp44
 70
     1
102
RTVSPropertyOp45
 70
     1
102
RTVSPropertyOp46
 70
     1
102
RTVSPropertyOp47
 70
     1
102
RTVSPropertyOp48
 70
     1
102
RTVSPropertyOp49
 70
     1
102
RTVSPropertyOp50
 70
     1
102
RTVSPropertyOp51
 70
     0
102
RTVSPropertyOp52
 70
     0
102
RTVSPropertyOp53
 70
     1
102
RTVSPropertyOp54
 70
     1
102
RTVSPropertyOp55
 70
     1
102
RTVSPropertyOp56
 70
     1
102
RTVSPropertyOp57
 70
     1
102
RTVSPropertyOp58
 70
     1
102
RTVSPropertyOp59
 70
     1
102
RTVSPropertyOp60
 70
     1
102
RTVSPropertyOp61
 70
     1
102
RTVSPropertyOp62
 70
     1
  0
XRECORD
  5
B7D
102
{ACAD_REACTORS
330
B7C
102
}
330
B7C
100
AcDbXrecord
280
     1
102
RTVSPost2010Prop28
280
     0
102
RTVSPost2010PropOp28
 70
     1
102
RTVSPost2010Prop29
280
     1
102
RTVSPost2010PropOp29
 70
     1
102
RTVSPost2010Prop30
280
     1
102
RTVSPost2010PropOp30
 70
     1
102
RTVSPost2010Prop31
280
     0
102
RTVSPost2010PropOp31
 70
     1
102
RTVSPost2010Prop32
280
     0
102
RTVSPost2010PropOp32
 70
     1
102
RTVSPost2010Prop33
280
     0
102
RTVSPost2010PropOp33
 70
     1
102
RTVSPost2010Prop34
280
     0
102
RTVSPost2010PropOp34
 70
     1
102
RTVSPost2010Prop35
280
     0
102
RTVSPost2010PropOp35
 70
     1
102
RTVSPost2010Prop36
280
     0
102
RTVSPost2010PropOp36
 70
     1
102
RTVSPost2010Prop37
 90
       50
102
RTVSPost2010PropOp37
 70
     1
102
RTVSPost2010Prop38
140
0.0
102
RTVSPost2010PropOp38
 70
     1
102
RTVSPost2010Prop39
140
1.0
102
RTVSPost2010PropOp39
 70
     1
102
RTVSPost2010Prop40
 90
        0
102
RTVSPost2010PropOp40
 70
     1
102
RTVSPost2010Prop41ColorIndex
 90
       18
102
RTVSPost2010Prop41ColorRGB
 90
        0
102
RTVSPost2010PropOp41
 70
     1
102
RTVSPost2010Prop42
 90
       50
102
RTVSPost2010PropOp42
 70
     1
102
RTVSPost2010Prop43
 90
        3
102
RTVSPost2010PropOp43
 70
     1
102
RTVSPost2010Prop44ColorIndex
 90
        5
102
RTVSPost2010Prop44ColorRGB
 90
      255
102
RTVSPost2010PropOp44
 70
     1
102
RTVSPost2010Prop45
280
     0
102
RTVSPost2010PropOp45
 70
     1
102
RTVSPost2010Prop46
 90
       50
102
RTVSPost2010PropOp46
 70
     1
102
RTVSPost2010Prop47
 90
       50
102
RTVSPost2010PropOp47
 70
     1
102
RTVSPost2010Prop48
 90
       50
102
RTVSPost2010PropOp48
 70
     1
102
RTVSPost2010Prop49
280
     0
102
RTVSPost2010PropOp49
 70
     1
102
RTVSPost2010Prop50
 90
       50
102
RTVSPost2010PropOp50
 70
     1
102
RTVSPost2010Prop51ColorIndex
 90
      256
102
RTVSPost2010Prop51ColorRGB
 90
-16777216
102
RTVSPost2010PropOp51
 70
     0
102
RTVSPost2010Prop52
140
1.0
102
RTVSPost2010PropOp52
 70
     0
102
RTVSPost2010Prop53
 90
        2
102
RTVSPost2010PropOp53
 70
     1
102
RTVSPost2010Prop54
  1
strokes_ogs.tif
102
RTVSPost2010PropOp54
 70
     1
102
RTVSPost2010Prop55
280
     0
102
RTVSPost2010PropOp55
 70
     1
102
RTVSPost2010Prop56
140
1.0
102
RTVSPost2010PropOp56
 70
     1
102
RTVSPost2010Prop57
140
1.0
102
RTVSPost2010PropOp57
 70
     1
102
RTVSPropertyOp0
 70
     1
102
RTVSPropertyOp1
 70
     1
102
RTVSPropertyOp2
 70
     1
102
RTVSPropertyOp3
 70
     1
102
RTVSPropertyOp4
 70
     1
102
RTVSPropertyOp5
 70
     1
102
RTVSPropertyOp6
 70
     1
102
RTVSPropertyOp7
 70
     1
102
RTVSPropertyOp8
 70
     1
102
RTVSPropertyOp9
 70
     1
102
RTVSPropertyOp10
 70
     1
102
RTVSPropertyOp11
 70
     1
102
RTVSPropertyOp12
 70
     1
102
RTVSPropertyOp13
 70
     1
102
RTVSPropertyOp14
 70
     1
102
RTVSPropertyOp15
 70
     1
102
RTVSPropertyOp16
 70
     1
102
RTVSPropertyOp17
 70
     1
102
RTVSPropertyOp18
 70
     1
102
RTVSPropertyOp19
 70
     1
102
RTVSPropertyOp20
 70
     1
102
RTVSPropertyOp21
 70
     1
102
RTVSPropertyOp22
 70
     1
102
RTVSPropertyOp23
 70
     1
102
RTVSPropertyOp24
 70
     1
102
RTVSPropertyOp25
 70
     1
102
RTVSPropertyOp26
 70
     1
102
RTVSPropertyOp27
 70
     1
102
RTVSPropertyOp28
 70
     1
102
RTVSPropertyOp29
 70
     1
102
RTVSPropertyOp30
 70
     1
102
RTVSPropertyOp31
 70
     1
102
RTVSPropertyOp32
 70
     1
102
RTVSPropertyOp33
 70
     1
102
RTVSPropertyOp34
 70
     1
102
RTVSPropertyOp35
 70
     1
102
RTVSPropertyOp36
 70
     1
102
RTVSPropertyOp37
 70
     1
102
RTVSPropertyOp38
 70
     1
102
RTVSPropertyOp39
 70
     1
102
RTVSPropertyOp40
 70
     1
102
RTVSPropertyOp41
 70
     1
102
RTVSPropertyOp42
 70
     1
102
RTVSPropertyOp43
 70
     1
102
RTVSPropertyOp44
 70
     1
102
RTVSPropertyOp45
 70
     1
102
RTVSPropertyOp46
 70
     1
102
RTVSPropertyOp47
 70
     1
102
RTVSPropertyOp48
 70
     1
102
RTVSPropertyOp49
 70
     1
102
RTVSPropertyOp50
 70
     1
102
RTVSPropertyOp51
 70
     0
102
RTVSPropertyOp52
 70
     0
102
RTVSPropertyOp53
 70
     1
102
RTVSPropertyOp54
 70
     1
102
RTVSPropertyOp55
 70
     1
102
RTVSPropertyOp56
 70
     1
102
RTVSPropertyOp57
 70
     1
102
RTVSPropertyOp58
 70
     1
102
RTVSPropertyOp59
 70
     1
102
RTVSPropertyOp60
 70
     1
102
RTVSPropertyOp61
 70
     1
102
RTVSPropertyOp62
 70
     1
  0
XRECORD
  5
B71
102
{ACAD_REACTORS
330
B70
102
}
330
B70
100
AcDbXrecord
280
     1
102
RTVSPost2010Prop28
280
     0
102
RTVSPost2010PropOp28
 70
     1
102
RTVSPost2010Prop29
280
     1
102
RTVSPost2010PropOp29
 70
     1
102
RTVSPost2010Prop30
280
     1
102
RTVSPost2010PropOp30
 70
     1
102
RTVSPost2010Prop31
280
     0
102
RTVSPost2010PropOp31
 70
     1
102
RTVSPost2010Prop32
280
     0
102
RTVSPost2010PropOp32
 70
     1
102
RTVSPost2010Prop33
280
     0
102
RTVSPost2010PropOp33
 70
     1
102
RTVSPost2010Prop34
280
     0
102
RTVSPost2010PropOp34
 70
     1
102
RTVSPost2010Prop35
280
     0
102
RTVSPost2010PropOp35
 70
     1
102
RTVSPost2010Prop36
280
     0
102
RTVSPost2010PropOp36
 70
     1
102
RTVSPost2010Prop37
 90
       50
102
RTVSPost2010PropOp37
 70
     1
102
RTVSPost2010Prop38
140
0.0
102
RTVSPost2010PropOp38
 70
     1
102
RTVSPost2010Prop39
140
1.0
102
RTVSPost2010PropOp39
 70
     1
102
RTVSPost2010Prop40
 90
        0
102
RTVSPost2010PropOp40
 70
     1
102
RTVSPost2010Prop41ColorIndex
 90
       18
102
RTVSPost2010Prop41ColorRGB
 90
        0
102
RTVSPost2010PropOp41
 70
     1
102
RTVSPost2010Prop42
 90
       50
102
RTVSPost2010PropOp42
 70
     1
102
RTVSPost2010Prop43
 90
        3
102
RTVSPost2010PropOp43
 70
     1
102
RTVSPost2010Prop44ColorIndex
 90
        5
102
RTVSPost2010Prop44ColorRGB
 90
      255
102
RTVSPost2010PropOp44
 70
     1
102
RTVSPost2010Prop45
280
     0
102
RTVSPost2010PropOp45
 70
     1
102
RTVSPost2010Prop46
 90
       50
102
RTVSPost2010PropOp46
 70
     1
102
RTVSPost2010Prop47
 90
       50
102
RTVSPost2010PropOp47
 70
     1
102
RTVSPost2010Prop48
 90
       50
102
RTVSPost2010PropOp48
 70
     1
102
RTVSPost2010Prop49
280
     0
102
RTVSPost2010PropOp49
 70
     1
102
RTVSPost2010Prop50
 90
       50
102
RTVSPost2010PropOp50
 70
     1
102
RTVSPost2010Prop51ColorIndex
 90
      256
102
RTVSPost2010Prop51ColorRGB
 90
-16777216
102
RTVSPost2010PropOp51
 70
     0
102
RTVSPost2010Prop52
140
1.0
102
RTVSPost2010PropOp52
 70
     0
102
RTVSPost2010Prop53
 90
        2
102
RTVSPost2010PropOp53
 70
     1
102
RTVSPost2010Prop54
  1
strokes_ogs.tif
102
RTVSPost2010PropOp54
 70
     1
102
RTVSPost2010Prop55
280
     0
102
RTVSPost2010PropOp55
 70
     1
102
RTVSPost2010Prop56
140
1.0
102
RTVSPost2010PropOp56
 70
     1
102
RTVSPost2010Prop57
140
1.0
102
RTVSPost2010PropOp57
 70
     1
102
RTVSPropertyOp0
 70
     1
102
RTVSPropertyOp1
 70
     1
102
RTVSPropertyOp2
 70
     1
102
RTVSPropertyOp3
 70
     1
102
RTVSPropertyOp4
 70
     1
102
RTVSPropertyOp5
 70
     1
102
RTVSPropertyOp6
 70
     1
102
RTVSPropertyOp7
 70
     1
102
RTVSPropertyOp8
 70
     1
102
RTVSPropertyOp9
 70
     1
102
RTVSPropertyOp10
 70
     1
102
RTVSPropertyOp11
 70
     1
102
RTVSPropertyOp12
 70
     1
102
RTVSPropertyOp13
 70
     1
102
RTVSPropertyOp14
 70
     1
102
RTVSPropertyOp15
 70
     1
102
RTVSPropertyOp16
 70
     1
102
RTVSPropertyOp17
 70
     1
102
RTVSPropertyOp18
 70
     1
102
RTVSPropertyOp19
 70
     1
102
RTVSPropertyOp20
 70
     1
102
RTVSPropertyOp21
 70
     1
102
RTVSPropertyOp22
 70
     1
102
RTVSPropertyOp23
 70
     1
102
RTVSPropertyOp24
 70
     1
102
RTVSPropertyOp25
 70
     1
102
RTVSPropertyOp26
 70
     1
102
RTVSPropertyOp27
 70
     1
102
RTVSPropertyOp28
 70
     1
102
RTVSPropertyOp29
 70
     1
102
RTVSPropertyOp30
 70
     1
102
RTVSPropertyOp31
 70
     1
102
RTVSPropertyOp32
 70
     1
102
RTVSPropertyOp33
 70
     1
102
RTVSPropertyOp34
 70
     1
102
RTVSPropertyOp35
 70
     1
102
RTVSPropertyOp36
 70
     1
102
RTVSPropertyOp37
 70
     1
102
RTVSPropertyOp38
 70
     1
102
RTVSPropertyOp39
 70
     1
102
RTVSPropertyOp40
 70
     1
102
RTVSPropertyOp41
 70
     1
102
RTVSPropertyOp42
 70
     1
102
RTVSPropertyOp43
 70
     1
102
RTVSPropertyOp44
 70
     1
102
RTVSPropertyOp45
 70
     1
102
RTVSPropertyOp46
 70
     1
102
RTVSPropertyOp47
 70
     1
102
RTVSPropertyOp48
 70
     1
102
RTVSPropertyOp49
 70
     1
102
RTVSPropertyOp50
 70
     1
102
RTVSPropertyOp51
 70
     0
102
RTVSPropertyOp52
 70
     0
102
RTVSPropertyOp53
 70
     1
102
RTVSPropertyOp54
 70
     1
102
RTVSPropertyOp55
 70
     1
102
RTVSPropertyOp56
 70
     1
102
RTVSPropertyOp57
 70
     1
102
RTVSPropertyOp58
 70
     1
102
RTVSPropertyOp59
 70
     1
102
RTVSPropertyOp60
 70
     1
102
RTVSPropertyOp61
 70
     1
102
RTVSPropertyOp62
 70
     1
  0
XRECORD
  5
B89
102
{ACAD_REACTORS
330
B88
102
}
330
B88
100
AcDbXrecord
280
     1
102
RTVSPost2010Prop28
280
     0
102
RTVSPost2010PropOp28
 70
     1
102
RTVSPost2010Prop29
280
     1
102
RTVSPost2010PropOp29
 70
     1
102
RTVSPost2010Prop30
280
     1
102
RTVSPost2010PropOp30
 70
     1
102
RTVSPost2010Prop31
280
     0
102
RTVSPost2010PropOp31
 70
     1
102
RTVSPost2010Prop32
280
     0
102
RTVSPost2010PropOp32
 70
     1
102
RTVSPost2010Prop33
280
     0
102
RTVSPost2010PropOp33
 70
     1
102
RTVSPost2010Prop34
280
     0
102
RTVSPost2010PropOp34
 70
     1
102
RTVSPost2010Prop35
280
     0
102
RTVSPost2010PropOp35
 70
     1
102
RTVSPost2010Prop36
280
     0
102
RTVSPost2010PropOp36
 70
     1
102
RTVSPost2010Prop37
 90
       50
102
RTVSPost2010PropOp37
 70
     1
102
RTVSPost2010Prop38
140
0.0
102
RTVSPost2010PropOp38
 70
     1
102
RTVSPost2010Prop39
140
1.0
102
RTVSPost2010PropOp39
 70
     1
102
RTVSPost2010Prop40
 90
        0
102
RTVSPost2010PropOp40
 70
     1
102
RTVSPost2010Prop41ColorIndex
 90
       18
102
RTVSPost2010Prop41ColorRGB
 90
        0
102
RTVSPost2010PropOp41
 70
     1
102
RTVSPost2010Prop42
 90
       50
102
RTVSPost2010PropOp42
 70
     1
102
RTVSPost2010Prop43
 90
        3
102
RTVSPost2010PropOp43
 70
     1
102
RTVSPost2010Prop44ColorIndex
 90
        5
102
RTVSPost2010Prop44ColorRGB
 90
      255
102
RTVSPost2010PropOp44
 70
     1
102
RTVSPost2010Prop45
280
     0
102
RTVSPost2010PropOp45
 70
     1
102
RTVSPost2010Prop46
 90
       50
102
RTVSPost2010PropOp46
 70
     1
102
RTVSPost2010Prop47
 90
       50
102
RTVSPost2010PropOp47
 70
     1
102
RTVSPost2010Prop48
 90
       50
102
RTVSPost2010PropOp48
 70
     1
102
RTVSPost2010Prop49
280
     0
102
RTVSPost2010PropOp49
 70
     1
102
RTVSPost2010Prop50
 90
       50
102
RTVSPost2010PropOp50
 70
     1
102
RTVSPost2010Prop51ColorIndex
 90
      256
102
RTVSPost2010Prop51ColorRGB
 90
-16777216
102
RTVSPost2010PropOp51
 70
     0
102
RTVSPost2010Prop52
140
1.0
102
RTVSPost2010PropOp52
 70
     0
102
RTVSPost2010Prop53
 90
        2
102
RTVSPost2010PropOp53
 70
     1
102
RTVSPost2010Prop54
  1
strokes_ogs.tif
102
RTVSPost2010PropOp54
 70
     1
102
RTVSPost2010Prop55
280
     0
102
RTVSPost2010PropOp55
 70
     1
102
RTVSPost2010Prop56
140
1.0
102
RTVSPost2010PropOp56
 70
     1
102
RTVSPost2010Prop57
140
1.0
102
RTVSPost2010PropOp57
 70
     1
102
RTVSPropertyOp0
 70
     1
102
RTVSPropertyOp1
 70
     1
102
RTVSPropertyOp2
 70
     1
102
RTVSPropertyOp3
 70
     1
102
RTVSPropertyOp4
 70
     1
102
RTVSPropertyOp5
 70
     1
102
RTVSPropertyOp6
 70
     1
102
RTVSPropertyOp7
 70
     1
102
RTVSPropertyOp8
 70
     1
102
RTVSPropertyOp9
 70
     1
102
RTVSPropertyOp10
 70
     1
102
RTVSPropertyOp11
 70
     1
102
RTVSPropertyOp12
 70
     1
102
RTVSPropertyOp13
 70
     1
102
RTVSPropertyOp14
 70
     1
102
RTVSPropertyOp15
 70
     1
102
RTVSPropertyOp16
 70
     1
102
RTVSPropertyOp17
 70
     1
102
RTVSPropertyOp18
 70
     1
102
RTVSPropertyOp19
 70
     1
102
RTVSPropertyOp20
 70
     1
102
RTVSPropertyOp21
 70
     1
102
RTVSPropertyOp22
 70
     1
102
RTVSPropertyOp23
 70
     1
102
RTVSPropertyOp24
 70
     1
102
RTVSPropertyOp25
 70
     1
102
RTVSPropertyOp26
 70
     1
102
RTVSPropertyOp27
 70
     1
102
RTVSPropertyOp28
 70
     1
102
RTVSPropertyOp29
 70
     1
102
RTVSPropertyOp30
 70
     1
102
RTVSPropertyOp31
 70
     1
102
RTVSPropertyOp32
 70
     1
102
RTVSPropertyOp33
 70
     1
102
RTVSPropertyOp34
 70
     1
102
RTVSPropertyOp35
 70
     1
102
RTVSPropertyOp36
 70
     1
102
RTVSPropertyOp37
 70
     1
102
RTVSPropertyOp38
 70
     1
102
RTVSPropertyOp39
 70
     1
102
RTVSPropertyOp40
 70
     1
102
RTVSPropertyOp41
 70
     1
102
RTVSPropertyOp42
 70
     1
102
RTVSPropertyOp43
 70
     1
102
RTVSPropertyOp44
 70
     1
102
RTVSPropertyOp45
 70
     1
102
RTVSPropertyOp46
 70
     1
102
RTVSPropertyOp47
 70
     1
102
RTVSPropertyOp48
 70
     1
102
RTVSPropertyOp49
 70
     1
102
RTVSPropertyOp50
 70
     1
102
RTVSPropertyOp51
 70
     0
102
RTVSPropertyOp52
 70
     0
102
RTVSPropertyOp53
 70
     1
102
RTVSPropertyOp54
 70
     1
102
RTVSPropertyOp55
 70
     1
102
RTVSPropertyOp56
 70
     1
102
RTVSPropertyOp57
 70
     1
102
RTVSPropertyOp58
 70
     1
102
RTVSPropertyOp59
 70
     1
102
RTVSPropertyOp60
 70
     1
102
RTVSPropertyOp61
 70
     1
102
RTVSPropertyOp62
 70
     1
  0
ENDSEC
  0
EOF
